Dave Matthews Band - Lover Lay Down Chords & Tabs

 

Lover Lay Down Chords & Tabs

Dave Matthews Band Chords & Tabs

Version: 3 Type: Tab 0 ratings
1 star 2 stars 3 stars 4 stars 5 stars
comments

Lover Lay Down Tab

   
Here's the correct tab..peace

NOTE: I didn't tab out the chords for the chorus..if you're playing this song 
then you're good enough to know the chords ;)

By: Porterman

/=slide

Verse:

Spring sweet rythm...

E ------------------------------------------------------
B ------------------------------------------------------
G ----2/4------4/6-------6-7----------------------------
D ----0--------5/7-------7-7----------------------------
A ------------------------------------------------------
E -2-------3---------5----------7-----5-----------------

Chorus: (All the same throughout)

     A        D/A       E/G
Oh, please - - -  lover lay down
G                      Bm7       A                    D/A
Spend this time with me - - together, share this smile - 

Bridge: (let ring)

Say love...
[ Tab from: http://www.guitartabs.cc/tabs/d/dave_matthews_band/lover_lay_down_tab_ver_3.html ]
E ------------------------------------------------------
B --------------0-------2--3-----3-------2--------------
G --------------0-------2--2-----2-------2--------------
D ----2---------4-------2--4-----4-------2--------------
A -4--0-----5--------------------2-------0--------------
E -2--------3---------5---------------------------------


E ------------------------------------------------------
B ----------------0---2-----2----3--3-----2-------------
G ----2----0------0---2-----2----2--2-----2-------------
D ----0---/4----------2-----2----4--4-----2-------------
A -4------/5------------------------2-----0-------------
E -2-----------3----------------------------------------

Up away..yeah, yeah, yeah


E ----5/7--------------------------5/7-------7----------
B ------------------------------------------------------
G ----2/4-----4--------------------2/4-------4----------
D ----0-------5--------------------0---------5----------
A ------------------------------------------------------
E -2----------3-----------------2------------3----------

E ------------------------------------------------------
B ------------------------------------------------------
G -------6---6----------6-------------------0-----------
D -------7---7---------------------0--4-----------------
A ------------------------------0-----------------------
E ----5--------------0-------2--------------------------
Comments