Dave Matthews Band - Louisiana Bayou Chords & Tabs

 

Louisiana Bayou Chords & Tabs

Dave Matthews Band Chords & Tabs

Version: 3 Type: Tab 0 ratings
1 star 2 stars 3 stars 4 stars 5 stars
comments

Louisiana Bayou Tab

Tabbed by Kevin Hunsicker (jtrdmb4140@yahoo.com)
Standard Tuning (eBGDAE)

Intro...

e|-------------12----------12-------------12-------------------------|
B|---15-12-14----15-12-14-------15-12-14----15-12-14-----------------|
G|-12--------14----------14--12---------14----------14---------------|
D|-------------------------------------------------------------------|
A|-------------------------------------------------------------------|
E|-------------------------------------------------------------------|
[ Tab from: http://www.guitartabs.cc/tabs/d/dave_matthews_band/louisiana_bayou_tab_ver_3.html ]
Verse...          Breakdown/Bridge* (if that's what you call it...)
(palm muted)
e|----------------|----------------------------|---------------------|
B|----------------|-2-2-------------3-2--2-0-2-|---------------------|
G|----------------|-2-2-2--2-2-1--1-2-2--2-2-2-|---------------------|
D|----------------|-2-2-3--3-3-2--2-0-x--x-0-2-|---------------------|
A|----7p5-5-4h5-5-|-0-x-x--x-x-x--x---4--4-2-0-|---------------------|
E|-5-5-----5------|---3-1--1-1-0--0------------|---------------------|

* However, for the breakdown part ("oh it's a shame to lose your way..." etc.), in 
the Roseland performance, Dave isn't playing anything.  In order for this tab to sound more 
and allow "song-long" playing, these chords seem to go well with the rest of the band.

Outro Jam...just play verse riff

That's as good as I can do for now...pretty simple song overall once you get the intro 
 ENJOY and email me with any questions!
Comments