Dave Matthews Band - Louisiana Bayou Chords & Tabs

 

Louisiana Bayou Chords & Tabs

Dave Matthews Band Chords & Tabs

Version: 2 Type: Tab 0 ratings
1 star 2 stars 3 stars 4 stars 5 stars
comments

Louisiana Bayou Tab

Song: Louisiana Bayou (solo)
Artist: Dave Matthews Band
Album: Stand Up (2005)

Whats up dave fans...the album just came out yesterday and i noticed there were no tabs
up for it, so i decided to post a couple of the riffs i picked up by ear. I know they
are prolly far from what dave actually plays but i figure if i get something up it wil
 help others to get the correct tabs up. So hope this helps some of you! P.S.Listen to
the song for the strumming
-Gannon


theres some variation even in the album version so heres the base of it you can do with
it what you like :)
[ Tab from: http://www.guitartabs.cc/tabs/d/dave_matthews_band/louisiana_bayou_tab_ver_2.html ]
Solo:
e|--------------12-----------------------------------|
B|---15-12-13------15-12-13--------------------------|
G|-----------13-------------13-----------------------|
D|---------------------------------------------------|
A|---------------------------------------------------|
E|---------------------------------------------------|

the rest of the song follows this sort of feel but i havent figured out what chords dave
uses or anything for that matter...heh maybe that might help somebody else though
e|---------------------------------------------------|
B|---------------------------------------------------|
G|---------------------------------------------------|
D|---------------------------------------------------|
A|---------------------------------------------------|
E|---12p10-10-9-9h10-10-12p10------------------------|


Hope i helped some!
Gannon
Comments