Dave Matthews Band - Little Thing Chords & Tabs

 

Little Thing Chords & Tabs

Dave Matthews Band Chords & Tabs

Version: 1 Type: Tab 0 ratings
1 star 2 stars 3 stars 4 stars 5 stars
comments

Little Thing Tab

   
Dave Matthews Band's
"Little Thing,"
from the Live at Luther College CD.
Submitted by: Rich

Intro:()= Bass note
	Hit each bass note, then strum the cord (just like crash, halloween, etc.) Listen to the cd to get the rhythm. 
e|----------0------------0----|
B|---------0------------0-----|
G|--------11-----------4------|
D|-------10-----------5-------|
A|------9------------6--------|
E|-(8)-8-------(7)--7---------|
[ Tab from: http://www.guitartabs.cc/tabs/d/dave_matthews_band/little_thing_tab.html ]
Chorus:
	Em7.	  C. slide-> D?	  B?	    Bm?
e|----3------0----------0-------0-------0----|
B|----3------1----------3-------0-------0----|
G|----0------0----------0-------7-------7----|
D|----2------2----------4-------X-------X----|
A|----2------3----------5-------5-------5----|
E|----0------3----------5---(7)-7---(6)-6----|

Lyrics:
	If you have any clue what Dave is saying, please e-mail me at: IwantToBeBlack@rocketmail.com.
Comments