Dave Matthews Band - Lie In Our Graves Chords & Tabs

 

Lie In Our Graves Chords & Tabs

Dave Matthews Band Chords & Tabs

Version: 1 Type: Tab 0 ratings
1 star 2 stars 3 stars 4 stars 5 stars
comments

Lie In Our Graves Tab

ok here is the main part throught the song
    
e---2-2-2-----------------3-3
b---3-3-3--------------------
g---2-2-2-----------2--------
d---0-0-0-----0-2-4---0------
a---------4-2-------------2-2
e-----------------------3-3-3


now the part where he's like "i'm blown away" goes like this
   
e--2-2-2---------------------------------
b--3-3-3-------------1-1-1---------------
g--2-2-2-----2-------2-2-2--0h2-0--------
d----------4---4--0--2-2-2--------4-2-4--
a--------0-------------------------------
e----------------------------------------
[ Tab from: http://www.guitartabs.cc/tabs/d/dave_matthews_band/lie_in_our_graves_tab.html ]
now here is the first little jam in the middle
(these are just the chords to this part, you figure out timing)
e-------------------------
b--5--7--5--7----1---3---1
g--5--7--5--7----2---4---0
d--5--7--5--7----2---4---2
a--3--5--3--5--------2---3
e-------------------------

now here is the last jam that goes on for a few minutes

e-----------------               e-----------------
b--7--5--3--------    it will    b--6--3--2--------
g--7--6--4---4-4-6    switch to  g--9--4--2--2-2-4-
d--x--x--x---x-x-x    this and   d--9--4--2--0-0-0-
a--5--4--2---2-2-4    back a     a--7--2--0--0-0-2-
e------------3-3-5    few times  e-----------2-2-3-
Comments