Dave Matthews Band - Let You Down Chords & Tabs

 

Let You Down Chords & Tabs

Dave Matthews Band Chords & Tabs

Version: 2 Type: Tab 0 ratings
1 star 2 stars 3 stars 4 stars 5 stars
comments

Let You Down Tab

Standard tuning
Im not putting in strumming, just go along with it.
Tired of all these wrong DMB tabs
[ Tab from: http://www.guitartabs.cc/tabs/d/dave_matthews_band/let_you_down_tab_ver_2.html ]
Verses
e|----------------------|-----------------------|
B|--8--7----------------|--8--7-----------------|
G|--9--7--6--7--7--7----|--9--7--6--7--7--7-----|
D|--------7-----5--6----|--------7-----5--6-----|
A|--7--5-----5----------|--7--5-----5-----------|
E|--------5--7--7--7----|--------5--7--7--7-----|

Chorus:
"I have no lid upon my head but if I did..."
e|---------------------------------|
B|-88---77-------------------------|
G|-99---77---66---7---7--7---------|
D|-----------77-------5--6---------|
A|-77---55--------5----------------|
E|-----------55---7---7--7---------|

Any problems IM Me Bluewater1963
Comments