Dave Matthews Band - Jtr Chords & Tabs

 

Jtr Chords & Tabs

Dave Matthews Band Chords & Tabs

Version: 4 Type: Tab 0 ratings
1 star 2 stars 3 stars 4 stars 5 stars
comments

Jtr Tab

Awesome song, it's on the Lillywhite Sessions, so you can get a bootleg
copy, but it hasn't been released by the band.

                                JTR

Intro:
E---------- --------------------------- ----------------------|
B---------- --------------------------- ----------------------|
G-----2p0-- --2h4-x-----4--0------5p4-- --2h4-x---4-0----2p0--|
D-----0---- ------x-----0--0------5---- ------x---0-0----0----|
A---------- ------x----------2/3------- ------x---------------|
E--2~~~/3-- ---------3----------------- --------3------2~~/3--|
   ^                              ^
   Slide to the 3, don't          Strummed on the upstroke.
   strum the 3.

[ Tab from: http://www.guitartabs.cc/tabs/d/dave_matthews_band/jtr_tab_ver_4.html ]
"Rain..."
E-------------------------------|
B-------------------------------|
G--5--5--5----4--3--2-----------|
D--x--x--x----x--x--0-----------|
A--2--2--2----2--1--x-----------|
E--5--5--5----3--3--1-----------|


1st Jam:
E-----------------------------------------|
B-----------------------------------------|
G-------------4h5p4-------x---4h5p4-------| then to "Rain" part
D--5--5--5----5-------5-4-x---5-------3---|
A--5--5--5----x-------5-5-x---x-------3---|
E--3--3--3----3-------3-2-x---3-------1---|
              ^
              The bass plays this an octave lower


2nd Jam:                                        During Sax solo:
E---------------------------------------------- ----------------|
B---------------------------------------------- ----------------|
G--7-8-9---------7---7----7-8-9---------7---7-- ----------------|repeat
D--------6-7-8-9---9------------6-7-8-9---9---- --2--6--7-------|
A---------------------------------------------- --2--6--7-------|
E---------------------------------------------- --0--4--5-------|
Comments