Dave Matthews Band - Jimi Thing Chords & Tabs

 

Jimi Thing Chords & Tabs

Dave Matthews Band Chords & Tabs

Version: 1 Type: Tab 2 ratings
1 star 2 stars 3 stars 4 stars 5 stars
comments

Jimi Thing Tab

Dave Matthews Band
Jimi Thing




E:---------------------------------------------------
B:-------------------------9-----9---------2---------
G:---------------------x---9-----9---------2----6h7--
D:------------9-----9--x---9h11--9---------2----7----
A:------7-----9h11--9--x--------------11\------------
E:-7h9-----9-----------------------------------------
  


What I want is what I've not got

E:-----------------------------------------------
B:-------------------------9-----9---------2--2--
G:---------------------x---9-----9---------2--2--
D:------------9-----9--x---9h11--9---------2--2--
A:------7-----9h11--9--x--------------11\--------
E:-7h9-----9-------------------------------------
  

Verse / Pre-Chorus
[ Tab from: http://www.guitartabs.cc/tabs/d/dave_matthews_band/jimi_thing_tab.html ]
E:----------------------------
B:-------------------------9--
G:---------------------x---9--
D:------------9-----9--x---9--
A:------7-----9h11--9--x------
E:-7h9-----9------------------



Pre-Chorus

E;-2-----1-----2-----0---0---2-----1-----2--------------------
B:-3-----1-----3-----1---1---3-----1-----3--------------------
G:-2-----2-----2-----0---0---2-----2-----2-----9----7------x--
D:-0-----3-----0-----2---3---0-----3-----0-----10----------x--
A:-------3-----------3---3---------3-----------x----x------x--
E:-------1-------------------------1-----------8----7\---3-x--
                                                        


Chorus x3


E;-------------------         E:----------
B:-------------------         B:----------
G:-2-----------------         G:-1-----1--
D:-2----------4---4-- x2 then D:-2-----2--
A:------------x---2--         A:-2-----2--
E:-----3---2--x---0--         E:-0-----4--



End Chorus

E:----
B:----
G:-2-- 
D:-2-- 
A:-0--
E:----
Comments