Dave Matthews Band - In My Life Chords & Tabs

 

In My Life Chords & Tabs

Dave Matthews Band Chords & Tabs

Version: 1 Type: Tab 0 ratings
1 star 2 stars 3 stars 4 stars 5 stars
comments

In My Life Tab

   
-=-=-=-=-=-=-=-=-=-=-=-=-=-=-=-=-=-=-=-=-=-=-=-=-=-
David J. Matthews
In My Life (Live)
Lyrics & Music: John Lennon & Paul McCartney (1965)
Live Radio City A Tribute To John Lennon (2001)
Tabbed by Leandro Koren
leandro_koren@yahoo.com.ar
-=-=-=-=-=-=-=-=-=-=-=-=-=-=-=-=-=-=-=-=-=-=-=-=-=-

Intro X 2:

E|-|----5------0-4---|-|-|------5-----0-4----|-|
B|-|--2----2-3-------|-|-|----2---2-3--------|-|
G|-|--2--------------|-|-|----2--------------|-|
D|-|-------------2---|-|-|--------------2----|-|
A|-|--0--------------|-|-|----0--------------|-|
e|-|-------------0---|-|-|--------------0----|-|
[ Tab from: http://www.guitartabs.cc/tabs/d/dave_matthews_band/in_my_life_tab.html ]
          A             F#m
There are places I'll remember
       Bm Dm       A
All my life though some have changed
        A            F#m
Some forever not for better
          Bm Dm     A
Some have gone, and some remain.
          F#m               Bm
All these places have their moments
     G                     A
With lovers and friends, I still can recall
         F#m               Bm
Some are dead and some are living
   D  Dm         A
In my life, I've loved them all

Repeat intro and again with the verse.

But of all these friends and lovers
There is no one compared with you
And these memories lose their meaning
When I think of love as something new
Thought I know I'll never lose affection
For people and things that went before
I know I'll often stop and think about them
In my life I'll love you more

Piano Solo: Like Verse.

Thought I know I'll never lose affection 
For people and things that went before
I know I'll often stop and think about them
In my life I'll love you more

Repeat Intro X 1.

In my life I'll you more.
End.
-=-=-=-=-=-=-=-=-=-=-=-=-=-=-=-=-=-=-=-=-=-=-=-=-=-=-=-=-=-=-=-=-=-=-=-=-=-=
-=-=-=-=-=-=-=-=-=-=-=-=-=-=-=-=-=-=-=-=-=-=-=-=-=-=-=-=-=-=-=-=-=-=-=-=-=-=
Any questions mail me:
leandro_koren@yahoo.com.ar
-=-=-=-=-=-=-=-=-=-=-=-=-=-=-=-=-=-=-=-=-=-=-=-=-=-=-=-=-=-=-=-=-=-=-=-=-=-=
-=-=-=-=-=-=-=-=-=-=-=-=-=-=-=-=-=-=-=-=-=-=-=-=-=-=-=-=-=-=-=-=-=-=-=-=-=-=
Comments