Dave Matthews Band - I Did It Chords & Tabs

 

I Did It Chords & Tabs

Dave Matthews Band Chords & Tabs

Version: 2 Type: Tab 0 ratings
1 star 2 stars 3 stars 4 stars 5 stars
comments

I Did It Tab

Heres "I did it" by DMB. it may not be perfect but itll get you going

intro
e-----7/-----------------7/------------------------------------------|
B-----7/-----------------7/------------------------------------------|
G--------------------------------------------------------------------|
D--------------------------------------------------------------------|
A---------3-x-5-x-7-x-3-x-5--55-------3-x-5-x-7-x-3-x-5--------------|
E-00------x-x-x-x-x-x-x-x-x-----------x-x-x-x-x-x-x-x-x--------------|

Verse (I'm mixing up a bunch of magic stuff...) repeat throughout verse
e-----7/-----------------------------------------------------------|
B-----7/-----------------------------------------------------------|
G--------5-x-7-x-9-x-5-x-7-----------------------------------------|
D--------X-x-X-x-X-x-X-x-X-----------------------------------------|
A--------3-x-5-x-7-x-3-x-5---55------------------------------------|
E-00-----X-x-X-x-X-x-X-x-X---00------------------------------------|
[ Tab from: http://www.guitartabs.cc/tabs/d/dave_matthews_band/i_did_it_tab_ver_2.html ]
Chorus                         Verse 2 (I never did a single thing..)
e----------------l----------l---------------------------------------|
B----------------l----------l---------------------------------------|
G------9-9-------l----------l-6-8-6-4-------------------------------|
D------7-7-------l----------l-4-8-6-4-------------------------------|
A------7-7-------l--4-6-7---l-4-6-4-2-------------------------------|
E--77--7-7-------l--7-7-7---l-4-------------------------------------|

Interlude/transition...played btw verses a couple times..

e-------------------------------------------------------------------|
B-------------------------------------------------------------------|
G--------4-2---------------------2----------------------------------|
D--0-4-2-----2-0-5-4---0-4-5-4-5------------------------------------|
A--------------------4----------------------------------------------|
E-------------------------------------------------------------------|

Thats basically it
any comments/corrections/suggestions
let me know..Adam1186@aol.com
thanks
Comments