Dave Matthews Band - I Did It Chords & Tabs

 

I Did It Chords & Tabs

Dave Matthews Band Chords & Tabs

Version: 2 Type: Bass Tab 0 ratings
1 star 2 stars 3 stars 4 stars 5 stars
comments

I Did It Bass Tab

Dave Matthews Band
I Did It
Julián O. Barrera
Kuckimonster2@aol.com

Intro
G-------|
D-------|
A--5-5--|
E-------|

Verse
G----------------------------------|
D----------------------------------|
A--5-5/17\--xx3--x5--x7--x3--x5-x--|
E----------------------------------|

Chorus
G--------------------------|
D--------------------------|
A--------------------------|
E--5-5-x5-x5-x5x5-5--7--8--|
[ Tab from: http://www.guitartabs.cc/tabs/d/dave_matthews_band/i_did_it_btab_ver_2.html ]
"I never did a single thing..."
G------------------------------------------------------|
D-------------------x4-4-----4-------------------------|
A------------------------4-4--4/6-6-x6-x6-x6x6-6-x8-8-6|
E--2-2-x2-x2-x2x2-2------------------------------------|

Sax Groove
G--------4-2------------------------|
D----4-2-----0---5-4---2-4-5-4-5----|
A--2-----------0-----4--------------|
E--------------------------------5--|

====
Comments