Dave Matthews Band - I Did It Chords & Tabs

 

I Did It Chords & Tabs

Dave Matthews Band Chords & Tabs

Version: 1 Type: Bass Tab 0 ratings
1 star 2 stars 3 stars 4 stars 5 stars
comments

I Did It Bass Tab

Artist: Dave Matthews Band
Song: "I did it"
Tabbed by Julián O. Barrera
Note: Slighty moderated for 4 string bass.

There are a bunch of ghost notes in this song which makes it fun to play.If you dont play the
 ghost notes it wont sound right when you play along. Just follow the guitar.

Intro:
 G-------|
 D-------|
 A--5-5--|
 E-------|

Verse:
 G----------------------------------|
 D----------------------------------|
 A--5-5/17\--xx3--x5--x7--x3--x5-x--|
 E----------------------------------|

Chorus: "I did it.."
 G--------------------------|
 D--------------------------|
 A--------------------------|
 E--5-5-x5-x5-x5x5-5--7--8--|
[ Tab from: http://www.guitartabs.cc/tabs/d/dave_matthews_band/i_did_it_btab.html ]
"I never did a single thing.." part:
 G-----------------------------------------------------------------------------------------------------------------------|
 D-------------------x4-4-----4------------------------------------------------------------------------------------------|
 A------------------------4-4--4/6-6-x6-x6-x6x6-6-x8-8-6-6-8-6-4-4-x4-x4-x4x4-4-x6-8-6-4-6-4-2-2-x2-x2-x2x2-2-x2-x2-x2x--|
 E--2-2-x2-x2-x2x2-2-----------------------------------------------------------------------------------------------------|

Sax part:
 G--------4-2------------------------|
 D----4-2-----0---5-4---2-4-5-4-5----|
 A--2-----------0-----4--------------|
 E--------------------------------5--|

THATS IT! Questions or Comments?: Kuckimonster2@aol.com

Comments