Dave Matthews Band - Help Myself Chords & Tabs

 

Help Myself Chords & Tabs

Dave Matthews Band Chords & Tabs

Version: 1 Type: Tab 0 ratings
1 star 2 stars 3 stars 4 stars 5 stars
comments

Help Myself Tab

i noticed there weren't any tabs for one of my favorite Dave Matthews Band songs.
i know it's not very well-known, but for anyone who's interested, here's what
i've got.


e|--------------------------------------------------------------------
B|--------------------------------------------------------------------
G|--------------------------------------------------------------------
D|----------------------------------------------------4-2-----4-2-----
A|-2-4-5-2-4-5-2-4-5-2-4-5-2-4-5-2---4-5-2-4-5----2-3-----2-3---------
E|--------------------------------------------------------------------
[ Tab from: http://www.guitartabs.cc/tabs/d/dave_matthews_band/help_myself_tab.html ]
e|--------------------------------------------------------------------
B|--------------------------------------------------------------------
G|--------------------------------------------------------------------
D|---------------5-----3------4-2-----4-2-----------------------------
A|-------------4-----4----2-3-----2-3---------------------------------
E|-------3---------5-----------------------3--------------------------

repeat for almost the entire song.

when he sings "..in the flowers, dangerous hours..." use this again:

e|--------------------------------------------------------------------
B|--------------------------------------------------------------------
G|--------------------------------------------------------------------
D|----------------------------------------------------4-2-----4-2-----
A|-2-4-5-2-4-5-2-4-5-2-4-5-2-4-5-2---4-5-2-4-5----2-3-----2-3---------
E|--------------------------------------------------------------------
Comments