Dave Matthews Band - Gravedigger Chords & Tabs

 

Gravedigger Chords & Tabs

Dave Matthews Band Chords & Tabs

Version: 1 Type: Tab 0 ratings
1 star 2 stars 3 stars 4 stars 5 stars
comments

Gravedigger Tab

   
Gravedigger

h-hammer on
^-strum up

Intro:
                                     ^ ^      ^ ^     ^ ^     ^ ^ 
E-------------------------------------------------------------------------------
B-----0h1-1-1---1----0h1-1-1---1--------------1-1---1-3-3---3-3-3---3-----------
G-----2---------2----2---------2---1-1-1---1--2-2---2-0-0---0-2-2---2-----------
D----------------------------------2-2-2---2------2-------0-------0-------------
A--0----------0---00---------0-----2-2-2---2------------------------------------
E--------------------------------0-------0--------------------------------------

Verse:

E------------------------------------------------------------------------------
B----0h1-1-1---1---0h1-1-1---1---3-3---3-------------0h1-1-1---1---------------
G----2---------2---2---------2---0-0---0---1-1---1---2---------2--REPEAT-------
D------------------------------------0-----2-2---2-----------------------------
A--0---------0---0---------0-------------------2---0--------0------------------
E------------------------------3---------0-------------------------------------
[ Tab from: http://www.guitartabs.cc/tabs/d/dave_matthews_band/gravedigger_tab.html ]
Chorus:
                                      ^ ^      ^ ^      ^ ^
E--------------------------------------------------------------------------------
B---0h1-1-1---1---3-3---3-----3-3---3-1-1---1--3-3---3--3-3---3------------------
G---2---------2---0-0---0---1-----1---2-2---2--0-0---0--2-2---2------------------
D---------------------0-----2-----2-------2--------0--------0--------------------
A-0---------0--------------------------------------------------------------------
E---------------3---------0------------------------------------------------------

Bridge:
         ^     ^       ^   ^   ^   ^ 3x
E------------------------------------|---------------0-0-0------------------------
B------3-3---1-1---------------------|-----3-3---1-1-1-2-1------------------------
G------2-2---2-2---0-----------------|-----2-2---2-2-0-0-2------------------------
D--0-0-----0-------2-0-0-0-0-2-2-2-2-|-0-0-----0-----2-0-2------------------------
A----------------0---2-2-2-2-0-0-0-0-|---------------3-2-0------------------------
E--------------------3-3-3-3-0-0-0-0-|---------------0-3-0------------------------

Chords (Chords are also easy positioning for tab)

Intro: Am Am E Am G D

Verse: Am Am G E Am

Chorus: Am G E7 Am G D

Bridge: Dm Dm7 C G C
Comments