Dave Matthews Band - Grace Is Gone Chords & Tabs

 

Grace Is Gone Chords & Tabs

Dave Matthews Band Chords & Tabs

Version: 1 Type: Tab 1 rating
1 star 2 stars 3 stars 4 stars 5 stars
comments

Grace Is Gone Tab

   
Intro chords:
E--- -----------------------
B-3- -3---3---3---3---3--3--
G-2- -2---2---2---0---2--2--
D-0- -4---2---0---x---0--0-
A--- -------------3-0h2----
E--- ----------------------


Intro picked:
E------------------- -------------------------------------------
B---3--3------3--3-- --3--3----3--3----3--3------3--3----3--3---
G-0h-2--2--0h2-2--2- ---2--2----2--2----2--2-0h2--2--2----0--0--
D-0---0----0----0--- -4--4----2--2----0--0---0-----0------------
A------------------- -----------------------------------0--0----
E------------------- -------------------------------------------

E---------------------------------
B-----3--3-----3--3-------3--3----
G------2--2-----2--2---0h2-2--2---
D-------0-----0--0--0--0----0-----
A--0h2----------------------------
E---------------------------------


[ Tab from: http://www.guitartabs.cc/tabs/d/dave_matthews_band/grace_is_gone_tab.html ]
Verse:
E---------------------------
B--3--3--3--3--3--3--3--3---
G--2--2--2--2--0--2--2--2--- then to intro riff
D--0--4--5--0--x--0--0--0--- or to chorus
A--------------3-------[0]--
E---------------------------
*sometimes he goes back to C chord
 before going to the chorus


"Excuse me please, one more drink..."
E-------------------------------
B--3---3--3---2---3---3--2--3---
G--0---2--4---2---0---2--2--2---
D--0---0--4---2---0---0--2--0---
A--2------2---0---2------4------
E--3--------------3-------------
   G   D  Bm  A   G   D  A/C#  D



"One more drink my grace is gone" repeated
E------------------------------
B--3--3--2--3------------------
G--2--4--2--2------------------
D--0--4--2--0------------------
A-----2--4---------------------
E------------------------------


Jam chords at the end is pretty
much the same as the intro

Comments