Dave Matthews Band - Good Good Time Chords & Tabs

 

Good Good Time Chords & Tabs

Dave Matthews Band Chords & Tabs

Version: 1 Type: Tab 0 ratings
1 star 2 stars 3 stars 4 stars 5 stars
comments

Good Good Time Tab

#-----------------------------PLEASE NOTE-----------------------------------------#
#The following file is the author's own work and represents their interpretation  #
#of the song. You may only use this file for private study, scholarship, or       #
#research. Remember to view this file in Courier, or some other monospaced        #
#font                                                                             #
#---------------------------------------------------------------------------------#

Good Good Time, by Dave Matthews Band
Tabbed by Adam Hanley (adwolf16@aol.com)
www.angelfire.com/music4/dmbmidis


I never though I'd say this about a Dave Matthews song, but.. Capo on 3.


[ Tab from: http://www.guitartabs.cc/tabs/d/dave_matthews_band/good_good_time_tab.html ]
e------------------|-----------|---------|---------|
b-1-0--------------|-----1---1-|-----0---|-----0---|
g-2-2--0h2p0-------|-----0h2-0-|-----0---|-----0---|
d------------0h2p0-|---2-------|-----0---|-------2-|
a-0----------------|-3---------|---2-----|---2-----|
E------------------|-----------|-3-----2-|-0-------|

e-----------|---------|---------------|
b-----------|-----0---|-1---1---1---1-|
g-----0h2-0-|-----0-0-|-0---0---2---2-|
d-----------|-----0---|---2---0---2---|
a---2-------|---2-----|-3---2---0-----|
E-0---------|-3-------|---------------|


Lots of hammer-ons and pull-offs, but there's not much more to this one than those little things. Email me at AdWolF16@aol.com with any questions or comments, and visit my DMB Midis site at www.angelfire.com/music4/dmbmidis
Comments