Dave Matthews Band - Fool To Think Chords & Tabs

 

Fool To Think Chords & Tabs

Dave Matthews Band Chords & Tabs

Version: 3 Type: Tab 0 ratings
1 star 2 stars 3 stars 4 stars 5 stars
comments

Fool To Think Tab

Dave Matthews Band - Fool To Think
Can't any of you fans get it correct?



Intro & Verses:
E|-----------------------------------------------|
B|---------------------3-------------------------|
G|-------------7-------0------4------6------4----|
D|-----4----5-------4----------------------------|
A|---2----3-------5---------2------4------2------|
e|-0----------------------3------5------3--------| X 4

[ Tab from: http://www.guitartabs.cc/tabs/d/dave_matthews_band/fool_to_think_tab_ver_3.html ]
Chorus
E|---------------------------|---------------------------|
B|---------------------------|---------------------------|
G|----------14---------------|----------14---------------|
D|----11-12----11-14-12-11---|----11-12----11-14-12-11---|
A|---------------------------|-10------------------------|
e|-10------------------------|---------------------------|

Ill even throw in this jam that he does, I believe its the its
right after the second chorus, but dont hold me to it, but its there.

Jam
E|-------------------------------|
B|-------------------------------|
G|-----11------7-------9--5-7----|
D|---9----------------7----------|
A|-7------7--------5-------------|
e|----------10-------------------|
Comments