Dave Matthews Band - Fool To Think Chords & Tabs

 

Fool To Think Chords & Tabs

Dave Matthews Band Chords & Tabs

Version: 2 Type: Tab 0 ratings
1 star 2 stars 3 stars 4 stars 5 stars
comments

Fool To Think Tab

   
-=-=-=-=-=-=-=-=-=-=-=-=-=-=-=-=-=-=-=
Dave Matthews Band
Fool To Think
David J. Matthews & Glen Ballard
Everyday(2001)
Tabbed by Leandro Koren
leandro_koren@yahoo.com.ar
-=-=-=-=-=-=-=-=-=-=-=-=-=-=-=-=-=-=-=

Intro & Verse:

     B/E    F/C	  D(Octave)
E|-|---------------------------|-|
B|-|---------------------3-----|-|
G|-|-------------7-------0-----|-|
D|-|-----4----5-------4--------|-|
A|-|---2----3-------5----------|-|
e|-|-0-------------------------|-| X 4

Verse I:

Look at me dreaming of you
All I could hope is to have you
To have you walking with me
Laughing so in love, we two
Almost drunkenly
I did imbibe of this
Fantasy of you and me

Chorus:

      A/D     Dsus2   D   A/D    Dsus2 D      Gadd9   G 
      pm..........................................................                      
E|-|--------5-----0------------5-----0-----|--------5-----0-------|-|
B|-|------3-----3-----3------3-----3-----3-|------3-----3-----3---|-|
G|-|----2-----2-----2------2-----2-----2---|----0-----0-----0-----|-|
D|-|--0------------------0-----------------|----------------------|-|
A|-|---------------------------------------|----------------------|-|
e|-|---------------------------------------|--3-------------------|-|
[ Tab from: http://www.guitartabs.cc/tabs/d/dave_matthews_band/fool_to_think_tab_ver_2.html ]
Was I a fool to think?
The way you looked at me
I swear you did
But you looked away too quick
Was I a fool, was I a fool to think
That you would take me home
As if I was yours
Was I a fool to think at all?

Intro X 2
Verse II:

I've grown tired of love
You are the trouble with me
I watch you walk right by
I smile, you do not notice me
Treat me recklessly
All you do is toss me pennies out
But the silence in me is screaming
Won't you come and get me?

Chorus:

Was I a fool to think?
The way you looked at me
I swear you did
But you looked away too quick
Was I a fool, was I a fool to think
That you would take me home
As if I was yours
Was I a fool to think at all?

Was I a fool to think?
The way you looked at me
I swear you did
But you looked away too quick
Was I a fool, was I a fool to think
That you would take me home
As if I was yours
Was I a fool to think at all?

You make a mess of me here
I dance a thousand steps for you
If you say yes to me
I'll be whatever gets you through

You make a mess of me here (was I a fool?)
I dance a thousand steps for you (was I a fool?)
Was I a fool, was I a fool to think?
Am I a fool, am I a fool for you?

End With Saxo.
-=-=-=-=-=-=-=-=-=-=-=-=-=-=-=-=-=-=-=-=-=-=-=-=-=-=-=-=-=-=-=-=-=-=-=-=-=-=
-=-=-=-=-=-=-=-=-=-=-=-=-=-=-=-=-=-=-=-=-=-=-=-=-=-=-=-=-=-=-=-=-=-=-=-=-=-=
Any questions mail me:
leandro_koren@yahoo.com.ar
-=-=-=-=-=-=-=-=-=-=-=-=-=-=-=-=-=-=-=-=-=-=-=-=-=-=-=-=-=-=-=-=-=-=-=-=-=-=
-=-=-=-=-=-=-=-=-=-=-=-=-=-=-=-=-=-=-=-=-=-=-=-=-=-=-=-=-=-=-=-=-=-=-=-=-=-=
Comments