Dave Matthews Band - Everyday Chords & Tabs

 

Everyday Chords & Tabs

Dave Matthews Band Chords & Tabs

Version: 4 Type: Tab 0 ratings
1 star 2 stars 3 stars 4 stars 5 stars
comments

Everyday Tab

   
-=-=-=-=-=-=-=-=-=-=-=-=-=-=-=-=-=-=-=-=
Dave Matthews Band
Everyday
L & M: David J. Matthews & Glen Ballard
Everyday(2001)
Tabbed By Leandro Koren
leandro_koren@yahoo.com.ar
-=-=-=-=-=-=-=-=-=-=-=-=-=-=-=-=-=-=-=-=

Without Guitar, just vocals:

Pick me up, love!
(Pick me up, love)
Hey, how long, how long, how long (Everyday)
Everyday, ah

[Guitar I]
Intro & Verse: 
     
Intro & Verses: F C F C F C Bb F[Figure 1]

[Guitar I]
Rhythm Guitar.    
                                                    [Figure 1]
      F       C              F       C              Bb          F
E|-|----------------------|----------------------|-----------------------|-|
B|-|----------------------|----------------------|-----------------------|-|
G|-|----9-------9-----9---|----9-------9-----9---|-------------------9---|-|
D|-|----10------10----10--|----10------10----10--|------10-----------10--|-|
A|-|--8-----8-------------|--8-----8-------------|----8----8----8-8------|-|
e|-|----------8-----8-----|----------8-----8-----|--6--------6-----------|-|

[Guitar II]
Lead Guitar.

E|-|----------------------|----------------------|----------------------|-|
B|-|----------------------|----------------------|----------------------|-|
G|-|--------9----9--------|-----7-9-7-9----------|----7h9--5--------9---|-|
D|-|-----10---10---10-----|-------------10-------|------------------10--|-|
A|-|----------------------|----------------------|--------------8-8-----|-|
e|-|----------------------|----------------------|----------------------|-|


Verse:

F       C       F              C
Pick me up, oh, from the bottom
F           C        Bb      F
Up to the top, love, everyday
F          C     F          C
Pay no mind to taunts or advances
                     [Figure 1]
F           C        Bb      F
I take my chances on everyday
[ Tab from: http://www.guitartabs.cc/tabs/d/dave_matthews_band/everyday_tab_ver_4.html ]
Left to right, Up and down, love
I push up love, love everyday
Jump in the mud, oh
Get your hands dirty with
Love it up on everyday

Chorus:

Am          F
All you need is
Am          F
All you want is
Am       C    F     G
All you need is love.
Am          F
All you need is
Am          F
What you want is
Am       C       G
All you need is love.


Everyday
Everyday
Oh, Everyday...

Verse II:

Pick me up, love, from the bottom
Up on to the top, love, everyday
Pay no mind to taunts or advances
I'm gonna take my chances on everyday

Left to right
Up and up and inside out right
Good love fight for everyday
Jump in the mud, mud
Get your hands filthy, love
Give it up, love, Everyday

Chorus:

All you need is
All you want is
All you need is love
All you need is
What you want is
All you need is love
Oh...

Pre-Chorus:
     Bb   Ab  Bb   C5 C/G
E|-|---------------------|-|
B|-|---------------------|-|
G|-|--5----3---5---5--5--|-|
D|-|--3----1---3---5--5--|-|
A|-|--X----X---X---3--X--|-|
e|-|--6--4-4---6------3--|-|

Bb           Ab  C G
What you've got
Bb           Ab  C G
Lay it down on me
Bb           Ab  C G
What you've got
Bb           Ab  C G
Lay it down on me

Chorus:

All you need is
All you want is
All you need is love.
All you need is
What you want is
All you need is love.

Everyday
Everyday
Oh, Everyday...

Verse III:

Pick me up love
Lift me up love
Pick me up love
Everday...

Up from the bottom, everyday
Up to the top love, everyday
Pick me up love
Lift me up love
Pick me up love
Everyday
-=-=-=-=-=-=-=-=-=-=-=-=-=-=-=-=-=-=-=-=-=-=-=-=-=-=-=-=-=-=-=-=-=-=-=-=-=-=
-=-=-=-=-=-=-=-=-=-=-=-=-=-=-=-=-=-=-=-=-=-=-=-=-=-=-=-=-=-=-=-=-=-=-=-=-=-=
Any questions mail me:
leandro_koren@yahoo.com.ar
-=-=-=-=-=-=-=-=-=-=-=-=-=-=-=-=-=-=-=-=-=-=-=-=-=-=-=-=-=-=-=-=-=-=-=-=-=-=
-=-=-=-=-=-=-=-=-=-=-=-=-=-=-=-=-=-=-=-=-=-=-=-=-=-=-=-=-=-=-=-=-=-=-=-=-=-=
Comments