Dave Matthews Band - Everyday Chords & Tabs

 

Everyday Chords & Tabs

Dave Matthews Band Chords & Tabs

Version: 3 Type: Tab 0 ratings
1 star 2 stars 3 stars 4 stars 5 stars
comments

Everyday Tab

Dave Matthews Band
“Everyday”
Tabbed by: Justin Bachtell


Intro & Verse:
E----x----------x----  -------------------------x----
B----x----------x----  -------------------------x----
G----9------9---9----  -------------------------9----
D---10--10------10---  ---------10--------10----10---
A-8--x----------x----  ----8----8---8-----------x----
E---------8---8------  --6---6---------s8----8-------
[ Tab from: http://www.guitartabs.cc/tabs/d/dave_matthews_band/everyday_tab_ver_3.html ]
Chorus
“All you need is…”
E----------------------------------
B------0h1------------------------3
G------2--------2-------2---------0
D------2--------2-------2---------0
A—-0-0-0--------x-------x---------2
E-----------1-1-1---3-3-3---------3

Break
“What you got…”

E-----------------------------------------
B-----------------------------------------
G--7--5--4---5--x--xs7--5--4---5--x--xs7—-
D--8--6--5---x--5--5s8--6--5---x--5--5s8--etc
A—-x--x--x---3--x--x-x--x--x---3--x--x-x--
E--6--4--3---x--3--3s6--4—-3---x--3--3s6--
Comments