Dave Matthews Band - Everyday Chords & Tabs

 

Everyday Chords & Tabs

Dave Matthews Band Chords & Tabs

Version: 1 Type: Tab 0 ratings
1 star 2 stars 3 stars 4 stars 5 stars
comments

Everyday Tab

It's 1:30 and I have class at 9 so this tab is gonna be short and to the point.  This is a great song so you should all learn to play it right :)

Dave Matthews Band - Everyday
From the Everyday album

Transcribed by Ian S.

------------------------------------------------------------|---------
------------------------------------------------------------|---------
--------9----------9--------9----------(                    |  )------
-------10------10----------10----------(    repeat 3x, then v  )------
--8---------8----------------------------------------------------------
--------------------h8------------------------------------------------

----------------------------------------------------------------------
--------------------------------------------------------------^-------
-----------------------------------9---(                      |)------
----------10-------10-------------10---(   once, then back up |)------
------8--------8------------------------------------------------------
--6------------------------8--(8)-------------------------------------


Then comes the chorus:
[ Tab from: http://www.guitartabs.cc/tabs/d/dave_matthews_band/everyday_tab.html ]
----------------------------------------------------------------------
----------------------------------------------------------------------
----5---------5------5------2--------2---2-----2-------(            )-
----2-----2------2----------3----3-------3--3----------( repeat 3x  )-
----------------------------------------------------------------------
----5--------------------1-------------1------------------------------

"All    you  need    is        love...."
----------------------------------------------------------------------
----------------------------------------------------------------------
----------2--------2----2------0---(0)--------------------------------
----------3---3---------3---------------------------------------------
-------------------------------2---(2)--------------------------------
----1--1---------1----1--------3---(3)--------------------------------





And finally the bridge:

-----------------------------------------------------------------------
------------------------------------------------(then it repeats this)-
---------------6-------------5------------------(riff a few times and)-
------10-------6-----10------5--5---------------(stops on the C right)-
------8---------------8----3----5---------------(at the end, just    )-
------6---4-4------6----------3----5/6----------(listen to it        )-








Comments