Dave Matthews Band - Everyday Acoustic 9 Chords & Tabs

 

Everyday Acoustic 9 Chords & Tabs

Dave Matthews Band Chords & Tabs

Version: 1 Type: Tab 0 ratings
1 star 2 stars 3 stars 4 stars 5 stars
comments

Everyday Acoustic 9 Tab

   
Artist: Dave Matthews
Song: Everyday (9-11-01 Tribute to heroes)
Solo acoustic fingerpicked version
Tabbed by: Tony Castricone


Part A
         *           *         *           *
E------------------------------------------------|
B------------------------------------------------|
G--------9------9----9---------9------9----9-----|
D--10---10-12-------10---10---10-12-------10-----|
A-----8--8-----------x------8--8-----------x-----|
E-------------8---8--8--------------8---8--8-----|


         *           *                           *
E----------------------------------------------------|
B----------------------------------------------------|
G--------9------9----9-------------------------------|
D--10---10-12-------10---------10-----10---10---10---|
A-----8--8-----------x-----8------8-------------10---|
E-------------8---8--8---6---6------6----8----8--8---|


*- strum with fingernails
#- strum with thumb

Part B
       *         *   * *     * *             #
   Am              F                         G
E--------------------------------------------3--------------------|
B------1-1---1---1---1-1-----1-1-------------0--------------------|
G----0h2---------2---2-2-----2-2-------------0--------------------|
D----0h2---2-----3---3-3-----3-3-------------0--------------------|
A--0-----------3-3---------------------------2--------------------|
E------------------1-----1h3-----------------3--------------------|


Part C
[ Tab from: http://www.guitartabs.cc/tabs/d/dave_matthews_band/everyday_acoustic_9_tab.html ]
E--------------------------------------|
B--------------------------------------|
G------------------8-----------5---5---|
D------10---10-----------8-----5---5---|
A-------8-8--------6-----6-6-3---------|
E--3/6---------4-4---4-4---------3-----|

(part A)
Pick me up love, from the bottom, up to the top. love, everyday
I pay no mind to taunts or advances. I take my chances on, everyday
Left to right, oh, up and down, love. I push up love, love, everyday
C'mon and jump in the mud of love. Get yourself filthy with good love it up your everyday.

(part B)
Am              F                 Am               F
All you need is, what you want is, all you need is love.
Am              F                 Am               G
All you need is, what you want is, all you need is love.

(part A)
Pick me up, love. From the bottom. Up on to the top, love. Everyday.
I will pay no mind to taunts or advances. I'm gonna take my chances on everyday.
You look, left to right, oh. Up and down, love. It's a good love fight for everyday.
C'mon and jump in the mud, your... Get yourself filthy with... Love it up your everyday.


(part B)
Am              F                 Am               F
All you need is, what you want is, all you need is love.
Am              F                 Am               G
All you need is, what you want is, all you need is love.


(part C)
What you've got, lay it down on me.
what you've got, lay it down on me.


(part B)
Am              F                 Am               F
All you need is, what you want is, all you need is love.
Am              F                 Am               G
All you need is, what you want is, all you need is love.


(part A)
Everyday, everyday, everyday, oh everyday.
Comments