Dave Matthews Band - Everybody Wake Up Chords & Tabs

 

Everybody Wake Up Chords & Tabs

Dave Matthews Band Chords & Tabs

Version: 1 Type: Tab 0 ratings
1 star 2 stars 3 stars 4 stars 5 stars
comments

Everybody Wake Up Tab

Song: Everybody Wake Up
Artist: Dave Matthews Band
Album: Stand Up (2005)

Whats up dave fans...the album just came out yesterday and i noticed there were no tabs
up for it, so i decided to post a couple of the riffs i picked up by ear. I know they
are prolly far from what dave actually plays but i figure if i get something up it will
help others to get the correct tabs up. So hope this helps some of you! P.S.Listen to
the song for the strumming
-Gannon


pretty straight forward song i think its pretty correct

boyd starts this off then the electric guitar kicks in with a bit of distortion playing
the same thing boyd was. You can get the same effect with an acoustic and electric guitar
Intro / Verse:
e|---------------------------------------------------|
B|---------------------------------------------------|
G|----12----14---14----12----12----12----------------|
D|-------12----12---12----12----12----12-------------|
A|---------------------------------------------------|
E|---------------------------------------------------|
[ Tab from: http://www.guitartabs.cc/tabs/d/dave_matthews_band/everybody_wake_up_tab.html ]
Chorus : (pretty sure boyd plays this but it sounds good on guitar too)
e|------------------------------12-13-12-------------|
B|---------------------12-13-15----------15-13-------|
G|---------------12-14-------------------------------|
D|--15-14-12-----------------------------------------|
A|-----------15--------------------------------------|
E|---------------------------------------------------|

e|-----------------------12-13----------|
B|--------------12-13-15----------------|
G|--------12-14-------------------------|
D|--------------------------------------|
A|--------------------------------------|
E|--------------------------------------|

Jam : (two ways to play it i suppose)

same as the verse...
e|---------------------------------------------------|
B|---------------------------------------------------|
G|----12----14---14----12----12----12----------------|
D|-------12----12---12----12----12----12-------------|
A|---------------------------------------------------|
E|---------------------------------------------------|

or (not sure if dave plays it this way but its just my interpretation)

e|---X---X---X-------------------|
B|---8--10---8-------------------|
G|---7---9---7-------------------|
D|---5---7---5-------------------|
A|-------------------------------|
E|-------------------------------|


Hops this helps you guys out playing the new album!
Comments