Dave Matthews Band - Drive In Drive Out Chords & Tabs

 

Drive In Drive Out Chords & Tabs

Dave Matthews Band Chords & Tabs

Version: 2 Type: Tab 0 ratings
1 star 2 stars 3 stars 4 stars 5 stars
comments

Drive In Drive Out Tab

   
=-=-=-=-=-=-=-=-=-=-=-=-=-=
Dave Matthews Band
Drive In Drive Out
Crash (1996)
Tabbed by Leandro Koren
leandro_koren@yahoo.com.ar
=-=-=-=-=-=-=-=-=-=-=-=-=-=

Intro & Verses:

E|-|-------------------|---------------|---------------|-|
B|-|-------------------|---------------|---------------|-|
G|-|-------------------|---------------|---------------|-|
D|-|----5-4------------|--5------------|--5------------|-|
A|-|--------5X4X5-4-0--|----5X4X5-4-0--|----5X4X5-4-0--|-|
e|-|--5----------------|---------------|---------------|-|

               G5  A5   
E|-|------------------|-|
B|-|------------------|-|
G|-|------------------|-|
D|-|----5-4-0--5-5-7--|-|
A|-|--0--------5-5-7--|-|
e|-|-----------3-3-5--|-| X 4

Verse:

I hear more than I like to...
so I boil my head in a sense of
humor... I laugh at what I cannot
change... and I throw it all on the pile
again... oh when I do this
I'd do it for you... when all that I
want is so badly to be... by myself
again... it's going to drive me right
out of my brain

Chorus:

G        D          A
Drive in drive out I'm leaving
G        D          A
Drive in drive out I'll come back again
G        D          A
Drive in drive out I'm leaving
G        D          A
Drive in drive out
A      D           G   A       D         A D
I don't care if we all turn to waste...

Verse:

So when I beg... you avoid
me... because I smell of dirt... hungry,
hungry boy... but you won't leave me all
alone... the boy won't go
Sooner or later we're gone
Sooner or later I'm gone because, because
Sooner or later we're done
Sooner away

Ooh, my head is pounding now... god
has all but left me behind... not a
note of worry... I'm going to
drive in and drive out again

Chorus:
[ Tab from: http://www.guitartabs.cc/tabs/d/dave_matthews_band/drive_in_drive_out_tab_ver_2.html ]
Drive in drive out I'm leavin
Drive in drive out I'll come
Drive in drive out I'm leavin
Drive in drive out

I'm over this arrangement...
around here... emptiness
sounded so good... I want to
drive you right into my world

Chorus:

Drive in drive out I'm leavin
Drive in drive out I'll come
Drive in drive out I'm leavin
Drive in drive out

Other jam:

E|-|-------------|-------------|---------------|-----------|------------|-|
B|-|-------------|-------------|---------------|-----------|------------|-|
G|-|-------------|-------------|---------------|-----------|------------|-|
D|-|----------0--|--1-2-3------|------0-1-2-3--|-----------|--0-1-2-3---|-|
A|-|--0-1-2-3----|--------0-1--|--2-3----------|--0-1-2-3--|---------0--|-|
e|-|-------------|-------------|---------------|-----------|------------|-|

E|-|-------------|-------------|-------------|-|
B|-|-------------|-------------|-------------|-|
G|-|-------------|-------------|-------------|-|
D|-|--------0-1--|--2-3--------|----0-1-2-3--|-|
A|-|--1-2-3------|------0-1-2--|--3----------|-|
e|-|-------------|-------------|-------------|-|

E|-|-------------|-------------|--------------|-----------|-----------|-|
B|-|-------------|-------------|--------------|-----------|-----------|-|
G|-|-------------|-------------|--------------|-----------|-----------|-|
D|-|----------0--|--1-2-3------|------0-1-2-3-|-----------|-0-1-2-3---|-|
A|-|--0-1-2-3----|--------0-1--|--2-3---------|--0-1-2-3--|--------0--|-|
e|-|-------------|-------------|--------------|-----------|-----------|-|

E|-|-------------|-------------|-|
B|-|-------------|-------------|-|
G|-|-------------|-------------|-|
D|-|--------0-1--|--2-3--------|-|
A|-|--1-2-3------|------0-1-2--|-|
e|-|-------------|-------------|-|


Jam:

e|-|-----------------------------------------------|-|
B|-|-----------------------------------------------|-|
G|-|-----------------------------------------------|-|
D|-|--------7--5-4------------------------------7--|-|
A|-|-----7----------7-5----------5-----5-----7-----|-|
e|-|--5------------------8-7--3-----3-----5--------|-|
Comments