Dave Matthews Band - Dreamgirl Chords & Tabs

 

Dreamgirl Chords & Tabs

Dave Matthews Band Chords & Tabs

Version: 3 Type: Tab 0 ratings
1 star 2 stars 3 stars 4 stars 5 stars
comments

Dreamgirl Tab

   
-------------------------------------------------------------------------------
			     Dreamgirl - Dave Matthews Band
-------------------------------------------------------------------------------
Tabbed by:Espen Rian Skog
Email:Espenskog@gmail.com

Tuning:EADGBE (Standard

Intro/fill:

e|---------------------------------------------------------------------------|
B|---------------------------------------------------------------------------|
G|---------------------------------------------------------------------------|
D|-9-------------------------------6-4-2-----2-4-2---------------------------|
A|---12-11-----11-12-11----------4--------4----------------------------------|
E|----------12-----------12-----(0)------------------------------------------|

Verse:
e|---------------------------------------------------------------------------|
B|---------------------------------------------------------------------------|
G|-1---2---------------------------------------------------------------------|
D|-2---2---------------------------------------------------------------------|
A|-2---0---------------------------------------------------------------------|
E|-0-------------------------------------------------------------------------|
[ Tab from: http://www.guitartabs.cc/tabs/d/dave_matthews_band/dreamgirl_tab_ver_3.html ]
Chorus:
e|---------------------------------------------------------------------------|
B|---------------------------------------------------------------------------|
G|---------------------------------------------------------------------------|
D|-9-----9-----9----------6--6h7--6---6--------------------------------------|
A|----7-----6-----6-----7-----------7----------------------------------------|
E|-9--------7--------5-------------------------------------------------------|

x3 then:

e|---------------------------------------------------------------------------|
B|---------------------------------------------------------------------------|
G|-1----1----1---------------------------------------------------------------|
D|---------------------------------------------------------------------------|
A|----4----4---4-------------------------------------------------------------|
E|-2-------------------------------------------------------------------------|

For the part with the heavy drumming ("caught by a wave") 
Dave just plays the verse chords.

That's it, I'll try and get some fuller verse chords in when I get ahold of a video..
Questions/corrections? Mail me.



| /  slide up
| \  slide down
| h  hammer-on
| p  pull-off
| ~  vibrato
| +  harmonic
| x  Mute note
===============================================================================
Comments