Dave Matthews Band - Crash Into Me Chords & Tabs

 

Crash Into Me Chords & Tabs

Dave Matthews Band Chords & Tabs

Version: 8 Type: Tab 0 ratings
1 star 2 stars 3 stars 4 stars 5 stars
comments

Crash Into Me Tab

i saw these on a site sumwhere cant member if i findem again ill
postem i not sure if it has the rite number o strums but u should
b able 2 figure it out if ya got a question or sumfin
(god only knows y) then email me at mellow_my_mind@yahoo.com
[ Tab from: http://www.guitartabs.cc/tabs/d/dave_matthews_band/crash_into_me_tab_ver_8.html ]
:----0-0-0-0----0-0-0----0-0-0-0----0-0-0--|
:----0-0-0-0----0-0-0----0-0-0-0----0-0-0--|
:----4-4-4-4----4-4-4----4-4-4-4----4-4-4--|
:----2-2-2-2----2-2-2----2-2-2-2----2-2-2--|
:--4----------0--------2-------------------|
:---------------------------------0--------|

:----0-0-0-0----0-0-0----0-0-0-0----0-0-0--|
:----0-0-0-0----0-0-0----0-0-0-0----0-0-0--|
:----4-4-4-4----4-4-4----4-4-4-4----4-4-4--|
:----2-2-2-2----2-2-2----2-2-2-2----2-2-2--|
:-------------0--------2-------------------|
:--4------------------------------0--------|
Comments