Dave Matthews Band - Crash Into Me Chords & Tabs

 

Crash Into Me Chords & Tabs

Dave Matthews Band Chords & Tabs

Version: 7 Type: Tab 0 ratings
1 star 2 stars 3 stars 4 stars 5 stars
comments

Crash Into Me Tab

   
Dave Matthews Band
Song: Crash
Album: Crash


d = down stroke
u = up stroke

[ Tab from: http://www.guitartabs.cc/tabs/d/dave_matthews_band/crash_into_me_tab_ver_7.html ]
   d     d    dud    d  d    d  d    dud     d  d      d d    dud    d d     d  d    dud   d  d
E-----------------------------------------------------------------------------------------------|
B--------5---5-5-5-----5--------5---5-5-5-------5--------5---5-5-5-----5--------5---5-5-5-----5-|
G--------4---4-4-4-----4--------4---4-4-4-------4--------4---4-4-4-----4--------4---4-4-4-----4-|
D--------2---2-2-2-----2--------2---2-2-2-------2--------2---2-2-2-----2--------2---2-2-2-----2-|
A---4----------------0--------2---------------0----------------------0-------2--------------0---|
E------------------------------------------------------4----------------------------------------|


E------------------------------|
B----------------------------3-|
G----------------------------2-|
D---------------------2------0-|
A---------------------2------x-|
E------4---5---7------0------2-|

I found a lot of versions of this song but none of them sounded right so this is a combination of all
the versions I found and mixed them until it did sound right.
Enjoy.
By Greg Neesham  Email: ride_96@yahoo.com
Comments