Dave Matthews Band - Crash Into Me Chords & Tabs

 

Crash Into Me Chords & Tabs

Dave Matthews Band Chords & Tabs

Version: 6 Type: Tab 0 ratings
1 star 2 stars 3 stars 4 stars 5 stars
comments

Crash Into Me Tab

   
Artist: Dave Matthews Band
Title: Crash Into Me
Album: Crash
Transcribed by: Collin Middleton
Email: stickboy20@hotmail.com

I'm pretty sure this tab is correct.  I'm not sure how many times you play each
riff, listen to the song to figure that out. 
Here's the riff order:
Riff A x 6
Riff B x 1
Riff A x 2
Riff C x 1
Riff A x a whole bunch

-----0---0-0-0-------0---0-0-0------0---0-0-0-------0---0-0-0--|----0---0-0-0-
-----0---0-0-0-------0---0-0-0------0---0-0-0-------0---0-0-0--|----0---0-0-0-
-----4---4-4-4-------2---2-2-2------2---2-2-2-------2---2-2-2--|----2---2-2-2-
-----2---2-2-2-------4---4-4-4------4---4-4-4-------4---4-4-4--|----4---4-4-4-
-4--------------0---------------2------------------------------|--------------
------------------------------------------------0--------------|-4------------
  Riff A   Part one                                                Part two   
[ Tab from: http://www.guitartabs.cc/tabs/d/dave_matthews_band/crash_into_me_tab_ver_6.html ]
-----0---0-0-0-------0---0-0-0-------0---0-0-0--------------------------------
-----0---0-0-0-------0---0-0-0-------0---0-0-0--------------------------------
-----2---2-2-2-------2---2-2-2-------2---2-2-2--------------------------------
-----4---4-4-4-------4---4-4-4-------4---4-4-4--------------------------------
-0---------------2------------------------------------------------------------
---------------------------------0--------------------------------------------
Riff A   (continued)
                                                                            
------0--0--x-x-----------0---------------------------------------------------
------0--0--x-x-----------0---------3-----------------------------------------
------2--2--x-x-----------1---------2-----2--------2--------------------------
------4--4--x-x-----------2---------0-------0----0----------------------------
--4-----------------------2---------0-----------------------------------------
----------------4--5--7---0---------2---2------2------------------------------
 Riff B                                                                       

-----0---0-0-0---0---0-0-0-0-0-0---0-0-0-0-0-0---0-0------0---0-0-0-----------
-----0---0-0-0---0---0-0-0-0-0-0---0-0-0-0-0-0---0-0------0---0-0-0-----------
-----2---2-2-2---2---2-2-2-2-2-2---2-2-2-2-2-2---2-2------2---2-2-2-----------
-----4---4-4-4---4---4-4-4-4-4-4---4-4-4-4-4-4---4-4------4---4-4-4-----------
-4-----------------------------------------------------0----------------------
------------------------------------------------------------------------------
 Riff C                                                                       

-----0---0-0-0-------0---0-0-0-------0---0-0-0-------0---0-0-0------0---0-0-0-
-----0---0-0-0-------0---0-0-0-------0---0-0-0-------0---0-0-0------0---0-0-0-
-----2---2-2-2-------2---2-2-2-------2---2-2-2-------2---2-2-2------2---2-2-2-
-----4---4-4-4-------4---4-4-4-------4---4-4-4-------4---4-4-4------4---4-4-4-
-2-----------------------------------------------0---------------2------------
-----------------0---------------4--------------------------------------------
 Riff C (continued)                                                           

-----0---0--------------------------------------------------------------------
-----0---0--------------------------------------------------------------------
-----2---2--------------------------------------------------------------------
-----4---4--------------------------------------------------------------------
-0----------------------------------------------------------------------------
------------------------------------------------------------------------------
 Riff C (continued)
Comments