Dave Matthews Band - Crash Into Me Chords & Tabs

 

Crash Into Me Chords & Tabs

Dave Matthews Band Chords & Tabs

Version: 11 Type: Tab 0 ratings
1 star 2 stars 3 stars 4 stars 5 stars
comments

Crash Into Me Tab

Tabbed by: GLENDELL JUEGO
Email: www.sixstringsounds@hotmail.com

Tuning: STANDARD TUNING


Intro/Verse -
   This song requires great timing so you must listen very well to the song!
e-----------------------------------------------------|
b----5--5-5-5-5-----5--5-5-----5--5-5-5-5-----5--5-5--|
g----4--4-4-4-4-----4--4-4-----4--4-4-4-4-----4--4-4--|
d----2--2-2-2-2-----2--2-2--------------------2--2-2--|
a-4--------------0----------2-------------------------|
e------------------------------------------0----------|


e-----------------------------------------------------|
b----5--5-5-5-5-----5--5-5-----5--5-5-5-5-----5--5-5--|
g----4--4-4-4-4-----4--4-4-----4--4-4-4-4-----4--4-4--|
d----2--2-2-2-2-----2--2-2--------------------2--2-2--|
a----------------0----------2-------------------------|
e-4----------------------------------------0----------|


Chorus - (Crash into me . . .)
e-------------------------------------------|
b----5---5--x-x------------------0-------3--|
g----4---4--x-x------------------2-------2--|
d----2---2--x-x------------------2-------0--|
a-4------------------------------1----------|
e-----------------4--x--5--7-----0-------2--|


Interlude 1 - (in a boys dream . . .)
Guitar I (Dave)  I did not line up the two guitars
e-------------------------------------------------------------------------------|
b-------5----5---5---5---5--------5----5---5-------5---5---5---5---5------------|
g-------4----4---4---4---4--------4----4---4-------4---4---4---4---4------------|
d-------2----2---2---2---2--------2----2---2------------------------------------|
a-4--------------------------0-----------------2--------------------------------|
e------------------------------------------------------------------------0------|

e-0----0---0------0---0---0----0--0---0---0--0-----0---0--0---0---0--0---0---0--|
b-5----5---5------5---5---5----5--5---5---5--5-----5---5--5---5---5--5---5---5--|
g-4----4---4------4---4---4----4--4---4---4--4-----4---4--4---4---4--4---4---4--|
d-2----2---2------2---2---2----2--2---2---2--2-----------------------2---2---2--|
a----------------------------0------------------2-------------------------------|
e-------------4------------------------------------------------0----------------|
[ Tab from: http://www.guitartabs.cc/tabs/d/dave_matthews_band/crash_into_me_tab_ver_11.html ]
Guitar II (Tim)
e-0--0-0-0-0-0-0-0--0--0-0-0-0-0-0-0--0-0-0-0-0-0--0--0-0-0-0-0-0--0--0-0-0-0---|
b-7----0-0-0-0-0-0--7----0-0-0-0-0-0----0-0-0-0-0--9----0-0-0-0-0--9----0-0-0---|
g-9--9-9-9-9-9-9-9--9--9-9-9-9-9-9-9--9-9-9-9-9-9-11--9-9-9-9-9-9-11--9-9-9-9---|
d-------------------------------------------------------------------------------|
a-------------------------------------------------------------------------------|
e-------------------------------------------------------------------------------|

e-0-0-0--0-0-0-0--|
b-0-0-0--7-0-0-0--|
g-9-9-9--9-9-9-9--|
d-----------------|
a-----------------|
e-----------------|

Interlude 2 - (in a boys dream . . .)

Guitar I (Dave) I did not line up the two guitars
e-------------------------------------------------------------------------------|
b-------5----5---5---5---5--------5----5---5-------5---5---5---5---5------------|
g-------4----4---4---4---4--------4----4---4-------4---4---4---4---4------------|
d-------2----2---2---2---2--------2----2---2------------------------------------|
a-4--------------------------0-----------------2--------------------------------|
e------------------------------------------------------------------------0------|

e-0----0---0------0---0---0----0--0---0---0--0-----0---0--0---0---0--0---0---0--|
b-5----5---5------5---5---5----5--5---5---5--5-----5---5--5---5---5--5---5---5--|
g-4----4---4------4---4---4----4--4---4---4--4-----4---4--4---4---4--4---4---4--|
d-2----2---2------2---2---2----2--2---2---2--2-----------------------2---2---2--|
a----------------------------0------------------2-------------------------------|
e-------------4------------------------------------------------0----------------|

Guitar II (Tim)
e-0--0-0-0-0-0-0-0--0--0-0-0-0-0-0-0--0-0-0-0-0-0--0--0-0-0-0-0-0--0--0-0-0-0---|
b-7----0-0-0-0-0-0--7----0-0-0-0-0-0----0-0-0-0-0--9----0-0-0-0-0--9----0-0-0---|
g-9--9-9-9-9-9-9-9--9--9-9-9-9-9-9-9--9-9-9-9-9-9-11--9-9-9-9-9-9-11--9-9-9-9---|
d-------------------------------------------------------------------------------|
a-------------------------------------------------------------------------------|
e-------------------------------------------------------------------------------|

e-0-0-0--0-0-0-0--|
b-0-0-0--7-0-0-0--|
g-9-9-9--9-9-9-9--|
d-----------------|
a-----------------|

A couple times later -
e--0---0---0---0---0---0--14---0----0---0---0---0---0---0---14--0--14--|
b--0---0--12-------0--12--12-------12--12--12---0---0---0---12--0--12--|
g----------------------------------------------------------------------|
d-14--14--14--14--14--14--14--14---14--14--14--14--14--14--14--14--14--|
a----------------------------------------------------------------------|
e----------------------------------------------------------------------|

that's all guys!!
enjoy!! godbless!!
suggestion/comments are welcomed
always play w/ your heart!
Comments