Dave Matthews Band - Crash Into Me Chords & Tabs

 

Crash Into Me Chords & Tabs

Dave Matthews Band Chords & Tabs

Version: 10 Type: Tab 0 ratings
1 star 2 stars 3 stars 4 stars 5 stars
comments

Crash Into Me Tab

#----------------------------------PLEASE NOTE--------------------------------#
#This file is the author's own work and represents their interpretation of the#
#song. You may only use this file for private study, scholarship, or research.#
#-----------------------------------------------------------------------------#
Date:10/17/01
By:Justin Pobst

Song:Crash Into Me
By: Dave Matthews Band

Standard Tuning
x=mute
[ Tab from: http://www.guitartabs.cc/tabs/d/dave_matthews_band/crash_into_me_tab_ver_10.html ]
Intro and Verse:
E---------xxxx------xx-----xxxx----xx----xxxx-----xx----xxxx---xx--------|
A---------5555------55-----5555----55----5555-----55----5555---55--------|
D---------4444------44-----4444----44----4444-----44----4444---44--------|
G---------2222------22-----xxxx----22----2222-----22----xxxx---22--------|
B----4----------0-------2----------------------0-----2-------------------|
E---------xxxx------xx-----xxxx--0-xx--4-xxxx-----xx----xxxx-0-----------|


Bridge to Chorus:
E--------------------0------0~-------------------|
A--------5555--------0------3~-------------------|
D--------4444--------1------2~let ring-----------| Back to Intro/Verse
G--------2222--------2------0~-------------------|
B-----4--------------2------X~-------------------|
E--------------4-5-7-0------2~-------------------|
"Crash        in-to me-ee   Baby, And I come into

Pretty much this way the entire song.  For the part where he says
"In a boys dream..." You are still playing the intro/verse sequence but you
have to listen to the cd for the changes.  Same sequence but different
timing.

Any suggestions or comments send to jpobst3@usa.net
thanks!
Comments