Dave Matthews Band - Cortez The Killer Chords & Tabs

 

Cortez The Killer Chords & Tabs

Dave Matthews Band Chords & Tabs

Version: 1 Type: Tab 0 ratings
1 star 2 stars 3 stars 4 stars 5 stars
comments

Cortez The Killer Tab

Verse/Intro:
e|-----------------------------|
B|-----------------------------|
G|-----------------------------|7x
D|-----------------------------|
A|-7777---6666---6666---7777---|
E|-0000---0000---5555---5555---|

*8th time						Distortion
e|--------------------------------|--------|
B|--------------------------------|--------|
G|--------------------------------|--------|
D|--------------------------------|--------|
A|-4444---7777---9999---9999----7-|--777-9-|
E|-2222---5555---7777---7777----5-|--555-7-|

Chorus
e|--------------------------------------------------|
B|--------------------------------------------------|
G|--------------------------------------------------|4x
D|--------------------------------------------------|
A|-22-----11-11---9-9---9-9---7-7----11--11---9-9---|
E|-00--0--7---7---7-7---5-5---5-5----7----7---7-7---|


e|--------------------|
B|----p----p----p-----|
G|----a----a----a-----|
D|----u----u----u-----| after this, play verse 3 times
A|-22-s-99-s-77-s-99--|
E|-00-e-77-e-55-e-77--|
[ Tab from: http://www.guitartabs.cc/tabs/d/dave_matthews_band/cortez_the_killer_tab.html ]
*4th time
e|--------------------------------|
B|--------------------------------|
G|--------------------------------|after this, repeat chorus
D|--------------------------------|
A|-4444---7777---99-11-x-11-9-9---|
E|-2222---5555---77-7--x-7--7-7---|





"Running as fast as I can"
e|------------|
B|------------|
G|------------|
D|------------|
A|5---7---2---|
E|3---5---0---|

"Running as fast as I RAWK"
e|-------------|
B|-------------|
G|-------------|
D|-------------|
A|-4---5---7---|
E|-2---3---5---|

e|--------------------|--------------------|
B|--------------------|--------------------|
G|--2^-xxxx---2^-xxxx-|--------------------|2x
D|-----xxxx------xxxx-|--------------------|
A|-----xxxx------xxxx-|-7-5-7-5-7-8-8-8-8--|
E|--------------------|-5-3-5-3-5-6-6-6-6--|

e|----------------|--------------------|
B|----------------|--------------------|
G|--7^-7^-7^-7^---|--------------------|
D|----------------|--------------------|
A|----------------|-7-5-7-5-7-8-8-8-8--|
E|----------------|-5-3-5-3-5-6-6-6-6--|

e|---------------------|--------------------|
B|--15^-xxxx-15^-xxxx--|--------------------|
G|---------------------|--------------------|
D|---------------------|--------------------|
A|---------------------|-7-5-7-5-7-8-8-8-8--|
E|---------------------|-5-3-5-3-5-6-6-6-6--|
Comments