Dave Matthews Band - Christmas Song Chords & Tabs

 

Christmas Song Chords & Tabs

Dave Matthews Band Chords & Tabs

Version: 3 Type: Tab 0 ratings
1 star 2 stars 3 stars 4 stars 5 stars
comments

Christmas Song Tab

Christmas song
tabbed by Jake Behan

Im sorry, but the other version of the "main riff" for the christmas song on this site 
is horribly wrong and doesnt sound anything like it should. Heres the way it really goes. 
by the way, this song is fingerpicked, but dont be discouraged if you cant. all you have 
to do is pinch both strings together at the same time between your thumb and index finger.

/ means: slide to
[ Tab from: http://www.guitartabs.cc/tabs/d/dave_matthews_band/christmas_song_tab_ver_3.html ]
e----------------------------------------
B----------------------------------------
G----7----7---0--------------------------
D----4/5--4---0----7----7---0--------5--- let this
A------------------4/5--4---0--------2--- ring
E----------------------------------------

This is the "....boyfrienddd" part
e-------------
B------------- 
G---boy--friend
D----4-----5---
A----5-----3---
E--------------

Chorus goes: G once, A once, Bminor twice.  BETWEEN EACH OF THESE CHORDS, if you tap down 
on the strings with your knuckles lightly (make sure they are all muted), so they tap the 
fingerboard, it sounds awesome.

sorry, but i dont exactly know the "when jesus christ was nailed to his tree" part, but 
its the same chords as the chorus in a different order.

email: jakebehan@hotmail.com
Comments