Dave Matthews Band - Christmas Song Chords & Tabs

 

Christmas Song Chords & Tabs

Dave Matthews Band Chords & Tabs

Version: 1 Type: Tab 1 rating
1 star 2 stars 3 stars 4 stars 5 stars
comments

Christmas Song Tab

"Christmas song"
by David J. Matthews

Made for two guitars but can be played with one

intro 
Gtr.I
e---------------------------------|-------------------------------|
|---------------------------------|-------------------------------|
|----7---7------------------------|----7---7----------------------|
|--4/5---4--O----7---7---------5--|--4/5---4--O----7---7-------5--|
|--------------4/5---4---O/2------|--------------4/5---4---O---2--|
E---------------------------------|-------------------------------|
[ Tab from: http://www.guitartabs.cc/tabs/d/dave_matthews_band/christmas_song_tab.html ]
Gtr.II
e---------------------------------|---10--10----------------------|
|---------------------------------|--7/8---7-------15--14--12--12-|
|----7---7------------------------|-------------14/16--14--12--12-|
|--4/5---4--O----7---7---------7--|-------------------------------|
|--------------4/5---4---7/9------|-------------------------------|
E---------------------------------|-------------------------------|
___________________________________________________________________

And now the song

Rhy. Fig .1

Gtr.I
e-------------------------------|
|-------------------------------|
|----7---7----------------------|
|--4/5---4---O-----7---7------5-|
|----------------4/5---4--O---2-|
E-------------------------------|

Gtr.II
e---------------------------------|
|---------------------------------|
|----7---7------------------------|
|--4/5---4---O-----7---7--------7-|
|----------------4/5---4--7/9-----|
E---------------------------------|
use all that with the lyrics and such


Love Love Love is just A  Bm and G miwed around should be pretty easy to figure out




Comments