Dave Matthews Band - Captain Chords & Tabs

 

Captain Chords & Tabs

Dave Matthews Band Chords & Tabs

Version: 1 Type: Tab 0 ratings
1 star 2 stars 3 stars 4 stars 5 stars
comments

Captain Tab

jeremy gaudet age 14, pei canada
&some credits to jhp4c2@mizzou.edu






Intro and most of the song:
E--------------------- ------------------
B---4----------------- -4----------------
G---4----4----7----6-- -4----------------
D---2----2----4----7-- -2----------------
A---4----x----5----7-- -4----------------
E--------4---/7----5-- ------------------



"Oh I know.." (~2 mins into song):
E------------------------------
B--4---------------------------
G--4--7---7---6----------------
D--2--x---x---7----------------
A--4--5---5---x----------------
E-----7---6---5----------------

[ Tab from: http://www.guitartabs.cc/tabs/d/dave_matthews_band/captain_tab.html ]
(lillywhite version)
Break down and "Why should I..." picked on:
E------------- 
B--5--5--5---- 
G--4--4--4---- 
D--2--2--x----
A--4--0--x---- 
E--------2---- 


(old version)After "Just the same as it was...."
E------------------------------ 
B--4-----3-----5--5------------
G--4--4--4--5--6--5--5--4------
D--2--2--4--6--6--5--5--5------
A--4--x--2--6--4--3--3--5------
E-----4-----4-----------3------


(old version)"Why should I..."
E------------------------------ 
B------------------------------
G--1--1-----1--1-----1--1------
D--2--2--4--2--2--4--2--2--4---
A--4--0--4--4--0--4--4--0--4---
E--------2--------2--------2---


 
Comments