Dave Matthews Band - Big Eyed Fish Chords & Tabs

 

Big Eyed Fish Chords & Tabs

Dave Matthews Band Chords & Tabs

Version: 4 Type: Tab 0 ratings
1 star 2 stars 3 stars 4 stars 5 stars
comments

Big Eyed Fish Tab

very good song,(my fave of new album)

big eyed fish


-----------------------------------------------------|
-----------------------------------------------------|
-----------------------------------------------------|
----9---5--5----5--4---------------------------------|
---7---3--3--3--2--2---------------------------------|
-----------------------------------------------------|

repeat
[ Tab from: http://www.guitartabs.cc/tabs/d/dave_matthews_band/big_eyed_fish_tab_ver_4.html ]
chorous -0--0--3--0---|
        -0--1--3--0---|
        -0--0--0--3---|
        -2--2--0--4---|
        -2--3--0--4---|
        -0--0--1--2---|


bojds violin bit is this

-------------------9--12------------|
--------------9-12------------------|
---9-7-9-11-12----------------------|
------------------------------------|
------------------------------------|
------------------------------------|

very easy, dave rules (+ band and tim)
 england! any probs e-mail pills86uk@yahoo.co.uk
Comments