Dave Matthews Band - Big Eyed Fish Chords & Tabs

 

Big Eyed Fish Chords & Tabs

Dave Matthews Band Chords & Tabs

Version: 1 Type: Tab 0 ratings
1 star 2 stars 3 stars 4 stars 5 stars
comments

Big Eyed Fish Tab

Artist: Dave Matthews Band
Song: Big Eyed Fish
Album: Busted Stuff, Summer 2002

These are my first tabs i've submitted, but they're 100% right,
or at least they sound that way!
[ Tab from: http://www.guitartabs.cc/tabs/d/dave_matthews_band/big_eyed_fish_tab.html ]
Guitar One:
e------------------------------------------------------------
B------------------------------------------------------------
G----------------------------------------4-4----------------- Repeat 2x
D-------9slide--------------5--5---5-5---4-4----------------- Then add 
A--7----7slide--------------3--3---2-2---2-2----------------- Guitar 2
E--0---------------------------------------------------------

Guitar Two:
e--------------------------10-12-----------------------------
B----------------10---10-12----------------------------------
G---9----9-11-12----12---------------------------------------
D-----12-----------------------------------------------------
A------------------------------------------------------------
E------------------------------------------------------------

This is just the intro, but the Guitar Two part is played
i think consistantly throughout the song.  Enjoy!
Comments