Dave Matthews Band - Angel Chords & Tabs

 

Angel Chords & Tabs

Dave Matthews Band Chords & Tabs

Version: 1 Type: Tab 0 ratings
1 star 2 stars 3 stars 4 stars 5 stars
comments

Angel Tab

   
-=-=-=-=-=-=-=-=-=-=-=-=-=-=-=-=-=-=-=
Dave Matthews Band
Angel
David J. Matthews & Glen Ballard
Everyday(2001)
Tabbed by Leandro Koren
leandro_koren@yahoo.com.ar
-=-=-=-=-=-=-=-=-=-=-=-=-=-=-=-=-=-=-=

Intro & Verses:

       
E|----------------------------------------------|
B|-------------4----------------------X---------|
G|--------4/6--4----------------------X---------|
D|--------4/6-------------------------X---------|
A|--6/2-----------4/6--4--2/4--2---2-----2--4---|
e|---------------------------------0------------|

E|----------------------------------------------|
B|-------------4----------------------X---------|
G|--------4/6--4----------------------X---------|
D|--------4/6-------------------------X---------|
A|----------------4/6--4--2/4--2---2-----2--4---|
e|---------------------------------0------------|

Verse:

E           A
I call you up
You pick up
E               A
You call my bluff
On the card to love
E               A
You hold too close
            E
Your hands to your chest
                  A
I can read your eyes
But I confess
F#                  A
It's lonely far from you, oh

Verse:

Even when you're right by me
F#          E or A
It's only why I wait for you
To take my hand
[ Tab from: http://www.guitartabs.cc/tabs/d/dave_matthews_band/angel_tab.html ]
Chorus:
F#m                         E
Why do I beg like a child for your candy?
F#m                         E
Why do I come after you like I do, I love you?
G#            G
Wherever you are
I swear
F#           E
You be my angel
You

Verse I:

I play my cards the best I can
But I lose my luck when you're not here
My darling heart
Won't you please give in?
I may be strong
But I want you back again
F#                     E or A
When you're not here it's hard to pretend
It's all alright again
F#                     E or A
When you're not here love it's hard to pretend
It's all alright but still

Chorus:

Why do I beg like a child for your candy?
Why do I run after you like I do, I love you?
Whatever you are
I swear
You be my angel, you

Verse:

Watch the deck
Count your cards
Makes no sense
That I'm always losing

Intro X 1

When you're gone

Intro X 1

Chorus:

Why do I beg like a child for your candy?
Why do I come after you like I do, I love you
Whatever you are
I swear
You'll be my angel, you
When you're gone

End: Intro X 1
-=-=-=-=-=-=-=-=-=-=-=-=-=-=-=-=-=-=-=-=-=-=-=-=-=-=-=-=-=-=-=-=-=-=-=-=-=-=
-=-=-=-=-=-=-=-=-=-=-=-=-=-=-=-=-=-=-=-=-=-=-=-=-=-=-=-=-=-=-=-=-=-=-=-=-=-=
Any questions mail me:
leandro_koren@yahoo.com.ar
-=-=-=-=-=-=-=-=-=-=-=-=-=-=-=-=-=-=-=-=-=-=-=-=-=-=-=-=-=-=-=-=-=-=-=-=-=-=
-=-=-=-=-=-=-=-=-=-=-=-=-=-=-=-=-=-=-=-=-=-=-=-=-=-=-=-=-=-=-=-=-=-=-=-=-=-=
Comments