Dave Matthews Band - American Baby Chords & Tabs

 

American Baby Chords & Tabs

Dave Matthews Band Chords & Tabs

Version: 6 Type: Tab 0 ratings
1 star 2 stars 3 stars 4 stars 5 stars
comments

American Baby Tab

This is the only tab you'll need, play it well
Play this and you'll be like dave

Violin part	Repeat throughout song

e|---7---7---10--10-9-7-----------7---|
B|---------------------10----10-------|
G|-(7)-7--7---------------7-7---7-----|
D|------------------------------------|
A|------------------------------------|
E|------------------------------------|
[ Tab from: http://www.guitartabs.cc/tabs/d/dave_matthews_band/american_baby_tab_ver_6.html ]
Verse and chorus (for the most part - same fingerings, listen to the song)
e|---------------------|
B|---------------------|
G|-------7-----6--4-4--|
D|----------------x-x--|
A|----5------4----2-2--|
E|--7------5------3-3--|


"I, I hold, hold on to you, "	                               repeat
E|-|----------------------------|-----------------------------------|
B|-|----------------------------|-----------------------------------|
G|-|----------------------------|-----------------------------------|
D|-|-----------7---9----11\12/11|---------7---9----11\12/11\12--14--|
A|-|---------9---9----9---------|-------9---9----9------------------|
E|-|----7-10--------7-----------|--7-10--------7--------------------|
         Listen to song for rhythm

Spend your living days well;)
Comments