Dave Matthews Band - American Baby Chords & Tabs

 

American Baby Chords & Tabs

Dave Matthews Band Chords & Tabs

Version: 4 Type: Tab 0 ratings
1 star 2 stars 3 stars 4 stars 5 stars
comments

American Baby Tab

   
Song: American Baby
Artist: Dave Matthews Band
Album: Stand Up (2005)

Whats up dave fans...the album just came out yesterday and i noticed there were no tabs
up for it, so i decided to post a couple of the tunes i picked up by ear. I know they
are prolly far from what dave actually plays but i figure if i get something up it will
help others to get the correct tabs up. So hope this helps some of you! P.S.Listen to
the song for the strumming
-Gannon
[ Tab from: http://www.guitartabs.cc/tabs/d/dave_matthews_band/american_baby_tab_ver_4.html ]
Boyd Violin Intro : (for acoustic guitar)
e|---10-10--9--7--5-----5---7--7----10--10--9--7--5--|
B|---------------------------------------------------|
G|------------------7-7---7---7--7-------------------|
D|---------------------------------------------------|
A|---------------------------------------------------|
E|---------------------------------------------------|

Verse / Chorus:
e|---------------------------------------------------|
B|---------------------------------------------------|
G|--7--7---6\2--2-2--3-3--7--7--6\2--2-2--3----------|
D|---------------------------------------------------|
A|---------------------------------------------------|
E|--7--7---5\2--2-2--4-4--7--7--5\2--2-2--4----------|

Variation:
e|---------------------------------------------------|
B|---------------------------------------------------|
G|-----7-------6----2----3-3-------------------------|
D|---------------------------------------------------|
A|---5------4----------------------------------------|
E|-7-------5--------2----4-4-------------------------|




DMB Forever!


Hope this helps you guys out playing the new album!
Gannon
Comments