Dave Matthews Band - All Along The Watchtower Chords & Tabs

 

All Along The Watchtower Chords & Tabs

Dave Matthews Band Chords & Tabs

Version: 1 Type: Tab 4 ratings
1 star 2 stars 3 stars 4 stars 5 stars
comments

All Along The Watchtower Tab

Dave Matthews Band
All Along The Watchtower
Intro



E:------------------------------------------
B:------------------------------------------
G:------------------------------------------
D:----------------------------x-------------
A:----------------------------x-------------
E:-5--5\---0h3--3--0--3--0h1--x--0h1---0h3--






[ Tab from: http://www.guitartabs.cc/tabs/d/dave_matthews_band/all_along_the_watchtower_tab.html ]
E:---------------------------------------
B:---------------------------------------
G:---------------------------------------
D:----------------x--3~~--3/5--5~~--5/7--
A:----------------x--3~~--3/5--5~~--5/7--
E:-5--5--3--3--1--x--0h1--1----0h3--3----



fast part

E:-0-----3-----1-----1---3--
B:-1-----0-----1-----1---0--
G:-2-----0-----2-----2---0--
D:-2-----0-----3-----3---0--
A:-0-----2-----3-----3---2--
E:-------3-----1-----1---3--



Jam

E:-------------------------------------------
B:-------------------------------------------
G:-------------------------------------------
D:-7--7--x--x--5--5--x--x--3--3--x--x--3--5--
A:-7--7--x--x--5--5--x--x--3--3--x--x--3--5--
E:-5--5--x--x--3--3--x--x--1--1--x--x--1--3--
Comments