Dave Matthews Band - 41 Chords & Tabs

 

41 Chords & Tabs

Dave Matthews Band Chords & Tabs

Version: 8 Type: Tab 0 ratings
1 star 2 stars 3 stars 4 stars 5 stars
comments

41 Tab

-----------
 #41 - DMB
-----------

Intro
Vary on how you play the intro chords, just listen, you'll get it
e--------- ------- -------- ------- -----------------------------------
B--------- ------- ------8- -----3- -----------------------------------
G------5-- -----7- ------7- -----0- -0h4p0-----------------------------
D------2-- -----4- ----5--- ---4--- --------5p4------------------------
A----3---- ---5--- ---7---- -5----- -----------------------------------
E--5------ -7----- -0------ ------- -----------------------------------

Verse
e-----x--------x--------x--------x-------------------------------------
B-----8--------8--------8--------8-------------------------------------
G-----7--------7--------7--------7-------------------------------------
D----*x-------*x-------*x-------*x-------------------------------------
A--------------------7--------5----------------------------------------
E--5--------7----------------------------------------------------------
* = it might be open, but it sounds fine either way, barely a
difference
[ Tab from: http://www.guitartabs.cc/tabs/d/dave_matthews_band/41_tab_ver_8.html ]
Chorus
e------x---------------------------------------------------------------
B------3---------------------------------------------------------------
G--4---2----9----------------------------------------------------------
D--x---0----x----------------------------------------------------------
A--2---x----7----------------------------------------------------------
E--3---2----8----------------------------------------------------------

Jam
e-----------------0----------------------------------------------------
B-----------------3----------------------------------------------------
G--5----7----4----0----------------------------------------------------
D--2----4----5----4----------------------------------------------------
A--3----5----7----5----------------------------------------------------
E--5----7---------0----------------------------------------------------

End
(vary on this on how you like, it changes every time, but these are the
chords used)
e--10--7--8--7--5--5---------------------------------------------------
B---8--8--8--8--8--7---------------------------------------------------
G---7--7--7--7--7--7---------------------------------------------------
D----------------------------------------------------------------------
A----------------------------------------------------------------------
E----------------------------------------------------------------------
Comments