Dave Matthews Band - 41 Chords & Tabs

 

41 Chords & Tabs

Dave Matthews Band Chords & Tabs

Version: 7 Type: Tab 0 ratings
1 star 2 stars 3 stars 4 stars 5 stars
comments

41 Tab

This is how dave plays it


Intro
play this four times

-------------------------------------------------
----------------------------------------3--------
--------5-5--------7-7-------7-7------0---0H4p0--
------2---3------4---4-----5---5----4------------
----3-----2----5-----5---7-----7--5--------------
--5-------5--7-------7---------------------------


Verse

[ Tab from: http://www.guitartabs.cc/tabs/d/dave_matthews_band/41_tab_ver_7.html ]
---------------------------------------
-----8-8-8----8-8-8----8-8-8-----8-8-8-
-----7-7-7----7-7-7----7-7-7-----7-7-7-
---------------------------------------
---------------------7--------5--------
---5--------7--------------------------


Chorus

----------------------
------3-3-------------
-4-4--2-2--9--9------
-x-x-------x--x-------
-2-2-------7--7-------
-3-3--2-2--8--8------


Jam riff
pretty much you play the intro riff as chords

--------------
----------3---
-5--7--7------
-2--4--5--4---
-3--5--7--5---
-5--7---------

Ending riff
play around with these chords,
dave does it different every time but with these chords
play 2 twice loud and then fade out with these chords

-10-7h8p7--5-5-5-5-5--
-8--8-8-8--7h8p7h8p7--
-7--7-7-7--7-7-7-7-7--
----------------------
----------------------
----------------------
Comments