Dave Matthews Band - 41 Chords & Tabs

 

41 Chords & Tabs

Dave Matthews Band Chords & Tabs

Version: 4 Type: Tab 0 ratings
1 star 2 stars 3 stars 4 stars 5 stars
comments

41 Tab

   
#-----------------------------PLEASE NOTE-------------------------------------#
#This OLGA file is the author's own work and represents their interpretation  #
#of the song. You may only use this file for private study, scholarship, or   #
#research. Remember to view this file in Courier, or some other monospaced    #
#font. See http://www.olga.net/faq/ for more information.                     #
#-----------------------------------------------------------------------------#

Date: Wed, 16 Aug 2000 03:37:49 -0400
From: "Scott Taylor" 
Subject: m/matthews_dave_band/#41.tab

"#41"

from Dave Matthews Band
Crash


This version differs from the way Dave and Tim Reynolds perform "41" in 
their live performances.



Intro

arpeggiates these chords
----- ----- ----- -----
-1--- -3--- -5--- -5---
-4--- -0--- -7--- -7---
-2--- -4--- -7--- -7---
----- ----- ----- -----
----- ----- ----- -----

Dave
-0---------- -2----- --0---- ---------
-1---------- -3----- --2---- ---------
-0---------- -2----- --0---- -11------
-2---------- -4----- --4---- ---------
-0---------- -2----- --2---- --9------
------------ ------- --0---- -10------
Tim
------------ ------- ------- ----0----
---1------1- ---3--- -----5- ---7-----
--4--4---4-- --0--0- ----7-- -7-------
-2-----2---- -4----- --7---- ---------
------------ ------- ------- ---------
------------ ------- ------- ---------


Dave
---------------- ---------------- ---------------- ----------------
---------------- ---------------- ---------------- ----------------
----0-------0--- ----0-------0--- ----0-------0--- ----0-------0---
---4--4---4---4- ---4--4---4---4- ---4--4---4---4- ---4--4---4---4-
-3------5------- -5------7------- -7------7------- -5------7-------
---------------- ---------------- ---------------- ----------------
Tim
---------------- ---------------- ---------------- ----2----5-2-0--
----1----------- ----3----------- ----3----------- -----3-3--3-----
---4------------ ---0--0--------- ---0------------ ----------------
-2-----------2-- -4-----------4-- -4-------------- ----------------
---------------- ---------------- ---------------- ----------------
---------------- ---------------- ---------------- ----------------


Dave
---------------- --------------- ---------------- ----------------
---------------- --------------- ---------------- ----------------
----0-------0--- ----0-------0-- ----0-------0--- ----0-------0---
---4--4---4---4- ---4--4---4--4- ---4--4---4---4- ---4--4---4-----
-3------5------- -5------7------ -7------7------- -5------7-----7-
---------------- --------------- ---------------- ----------------
Tim
-(0)------------ --------------- ---------------- ----------------
--------------0- -(0)----------- ---------0------ ----------------
------------2--- --------------- -------2--2-0--- -------------0--
---------4------ --------------- -----2--------2- -(2)------------
---------------- --------------- ---2------------ ----------------
---------------- --------------- -0-------------- ----------------
overdub
---------------- --------------- ---------------- --10xxxx--10xxxx
---------------- --------------- ---------------- -8-------8------
---------------- --------------- ---------------- 7-------7-------
---------------- --------------- ---------------- ----------------
---------------- --------------- ---------------- ----------------
---------------- --------------- ---------------- ----------------


Verse 1

Come and see. I swear by now I'm playing time......

Figure 1
-----10-x-x-x-x------10-x-x-x-x-
--8---------------8-------------
7---------------7---------------
--------------------------------
--------------------------------
--------------------------------

play Figure 1 - 16 times with

------------------------- -------------------------
------------------------- --------------------0--0-
-0-2--2--0--0--2--2--0--0 0-2--2--0--0--2--2-------
------------------------- -------------------------
------------------------- -------------------------
------------------------- -------------------------

                             *arpeg.
-0--0-0-0--0--0--0- -------- ----- ----- ------- ------- -----
-0--0-0-0--0--0--0- -5----5- -1--- -3--- -8--7-- -5--7-- -1---
------------------- -7----7- -4--- -0--- -7--7-- -7--7-- -4---
------------------- -7------ -2--- -4--- -9--9-- -7--7-- -2---
------------------- -------- ----- ----- ------- ------- -----
------------------- -------- ----- ----- ------- ------- -----

                ....play on time is won....

    *
-0--- --0--3--5-- ---------- ---------------------- ---------------
-3--- --0--3--5-- -----5---- ---------------------- ---------------
-2--- -2--------- ---7---7-- ----2-----2---2-2----- ----4----4-----
-4--- ----------- --7------- ---2--2-----------2-0- ---4-4---4-4-4-
----- ----------- ---------- -0------0---0--------- -2-------------
----- ----------- ---------- ---------------------- -------0-------


               ......coming.....


------------------ -----
------------------ -3---
------------------ -2---
----2-----xxx-2--- -4---
---2--2---------2- -----
-0------0--------- -----


......here.

Figure 2
(rhythmic strumming)
------ ------------ -0--- -5----- ----- ----- -2--- ------
-1---- -3---------- -0--- -7----- -1--- -3--- -3--- -3----
-4---- -0---------- ----- -7----- -4--- -0--- -0--- -2----
-2---- -4---------- ----- ------- -2--- -4--- ----- -0----
------ ------------ ----- ------- ----- ----- ----- ------
------ ------------ ----- ------- ----- ----- ----- ------
Figure 3
(rhythmic strumming)
10---- 10-7--8--7-- -5--- -5-----
10---- 10-8--8--8-- -8--- -7-----
-7---- -7-7--7--7-- -7--- -7-----  repeat Fig. 3
------ ------------ ----- -------
------ ------------ ----- -------
------ ------------ ----- -------



Chorus

I will go in this way.....


Figure 4
-3---3-- -2----2-x---- ------ ---H----------
-3---3-- -3----3-x---- --8--- --8-10-10--8--
-0---0-- -2----2-x---- --9--- --9-----9--9--
-0------ -0-------~10- -10--- -10----10-10--
-2------ ------------- ------ --------------
-3------ -2----------- ------ --------------
Figure 5
-------- ------------- ------ --------------
-------- ------------- ------ --------------
-------- ------------- -5---- -5--7---3-----
-5------ -4----------- -5---- --------------
-------- ------------- -3---- -3--5---5---0-
-3------ -2----------- ------ --------------


(Fig. 4)
--------- -------- --8----- -------
-----12-- -10---8- --8--8-- --8----
-----12-- -11---9- --9--9-- --9----  end Fig. 4
~12--12-- -12--10- -10-10-- -10----
~10------ -------- -------- -------
--------- -------- -------- -------
(Fig. 5)
--------- -------- -------- -------
--------- -------- -------- -------
--------- -------- -5------ -5-----  end Fig. 5
-5------- -4------ -5------ -5-----
--------- -------- -3------ -3-----
-3------- -2------ -------- -------

.....coming to much more....


Verse 2

...Me. Come down, the ghosts come back.....


----------- ---------- ------ -------5----- ---- ---- -3-- ----
-1--------- -3----3-3- -3---- ----------5-- -1-- -3-- -3-- -5--
-4-----0-0- -0----0-0- -0---- -7----------- -4-- -0-- -0-- -7--
-2--------- -4----2-2- -2---- -7--7-------- -2-- -4-- -2-- -7--
----------- ------2-2- -2---- ------------- ---- ---- -2-- ----
----------- ------0-0- -0---- ------------- ---- ---- -0-- ----
Figure 6 - funky arpeg.
-0--------- -2-------- ------ -------------
-1--------- -3-------- -0--0- --H--------0-  repeat Fig. 6
-2-----0-0- -4-------- -0---- -0-2-----2-0-   slight var.
--------4-- -4----0-0- -0--2- -0---4-0-----
----------- ---------- ------ -------------
----------- ---------- ------ -------------


In a way, I used to play for all the loneliness....

play Figure 1 - 8 times with

----0-------0--0- ----- ----- ------0- --------- ----- -0-- ------
------0--1------- -3--- -3--- -5---0-- -1---3-3- -3--- -3-- ----5-
-7~-------------- -0--- -0--- -7------ -4---0-0- -0--- -0-- -7--7-
-7~-------------- -4--- -4--- -7------ -2---4-4- -4--- -4-- -7--7-
----------------- ----- ----- -------- --------- ----- ---- ------
----------------- ----- ----- -------- --------- ----- ---- ------


.....here....yeah...only waitin'......

play Figure 2 - 2 times with
Figure 3 - 4 times

.....moving into your head....please...


Chorus

I wouldn't pass this by.....

play Figures 4 and 5 - 2 times with

(overdub) *arpeg.
------ -2--- --0-----3- ---- ----- ----5--- -3-- -3-- -7------
----3- -3--- ------3--- -3-- ---3- -3------ -3-- -3-- -8------
---4-- -2--- ----5----- -5-- --4-- -2------ -5-- -5-- -7--4---
--5--- -4--- -5-------- -5-- -5--- -4-0--0- -5-- -5-- ---5-5--
------ ----- ---------- ---- ----- -------- -3-- ---- --------
------ ----- ---------- ---- ----- -------- ---- ---- --------

                   .....let the tears splash all over you....

(overdub)
-------------- -0-- -3-- -0-- ---- -5-- -8----
-------------- -3-- -3-- -3-- -3-- -5-- ------
-2--2-0---2-0- -5-- -5-- -4-- ---- -7-- -9----
-4------4----- -5-- -5-- -0-- -4-- ---- ------
-------------- ---- ---- ---- ---- ---- ------
-------------- ---- ---- ---- ---- ---- ------


Outro

(composite arrangement until end)


---------------- --------------- -0---0----0---- -------------
-1---1---0---1-- -3---3------3-- -------------0- -3--3----3---
---------------- --------------- -0---0----0---- -----------2-
-2---2---0---2-2 -4---4------4-- -2------2------ -4--4----4---
-0---------0---- -2--------2---- --------------- -5-----5-----
---------------- --------------- --------------- -------------
w/
-------0-------- -------2------- -------3------- ---0--2------
----1--1-------- ----3--3------- ----5---------- -3-----------
-2--0----------- -4--2---------- -4-----0------- -------------
-2-------------- -4------------- ----2---------- ---0--4------
---------------- --------------- -2------------- -0-----------
---------------- --------------- --------------- -------------

[ Tab from: http://www.guitartabs.cc/tabs/d/dave_matthews_band/41_tab_ver_4.html ]
---------------- --------------- --------------- -------------
-1----1-------1- -3---3-------3- -5---5----5---- -8--7---5--8-
---------------- --------------- --------------- -------------
-2----2-------2- -4---4-------4- -5---5-----5--- -9--7---5--9-
-0--3-------0--- --------------- --------------- -------------
---------------- --------------- --------------- -------------
w/
-------0-------- -------2------- -------3------- -------2-----
----1--1-------- ----3--3------- ----5---------- -3--5--------
-2--0----------- -4--2---------- -4--0--0------- -------2-----
-2-------------- -4-----4------- -2--2--4------- -0--4--4-----
---------------- -2--5---------- -2------------- -0--5--------
---------------- --------------- --------------- -------------


---------------- --------------- --------------- -------------
-7----5------7-- -8---7-----7--- -7---5------7-- -5----3--5-5-
---------------- --------------- --------------- -------------
-7----5------7-- -9---7-----7--- -7---5------7-- -5----4--5-5-
---------------- --------------- --------------- -------------
---------------- --------------- --------------- -------------
w/
-------0-------- -------2------- -------3------- -------2-----
----1--1-------- ----3--3------- ----5---------- -3--5--------
-2--0----------- -4--2---------- -4--0--0------- -0--2--4-----
-2-----2-------- -4-----4------- -2--2--4------- -------4-----
-0--3----------- -2--5---------- -2------------- -0--5--------
---------------- --------------- --------------- -------------


---------------- --------------- --------------- -------------
-3---1-------7-- -5----3-----8-- -7----5----5--- -3---7----5--
---------------- --------------- --------------- -------------
-4---2-------7-- -5----4-----9-- -7----5----5--- -4---7----5--
---------------- --------------- --------------- -------------
---------------- --------------- --------------- -------------
w/
-------0-------- -------2------- -------3------- -------2-----
----1--1-------- ----3--3------- ----5---------- -3--5--------
-2--0----------- -4--2---------- -4--0--0------- -0--2--4-----
-2-----2-------- -4-----4------- -2--2--4------- -------4-----
-0--3----------- -2--5---------- -2------------- -0--5--------
---------------- --------------- --------------- -------------


Flute solo

---0---- ---5---- ---------- ----------------- ------------
-1---1-- -3---3-- ---------- ----------------- ------------
-------- -------- -----0---- ---0-2-0---0-2-0- ---2-0--2-0-
-2---2-- -4---4-- ---4------ -4-------4------- -4----4-----
-------- -------- ---------- ----------------- ------------
-------- -------- ---------- ----------------- ------------
w/
-------- -------- ----10---- ------5---------- ----5-------
-------- -------- -8-----8-- -7------------7-- -3-------3--
-------- -------- ---------- ----------------- ------------
-------- -------- -9-----9-- -7------------7-- -4-------4--
-------- -------- ---------- ----------------- ------------
-------- -------- ---------- ----------------- ------------


----------------- ---------------- -------------
------0--------0- ---------------- -------------
---2-------0-2--- ----2--0----2-0- ------2----0-
4-------4-------- -4-------4------ -4-----------
----------------- ---------------- -------------
----------------- ---------------- -------------
w/
----------------- -----5---------- -----2-------
3------------3--- -3----------3--- -3---------0-
----------------- ---------------- --------0----
4------------4--- -4----------4--- -4-----------
----------------- ---------------- -------------
----------------- ---------------- -------------

Figure A
---------8-----------8-------- -10-----10-----------10-----
-7-5--5----------------------- --7---------------7---------
------------------------0-0-0- -----------7--7---------9---
-----------7-------7---------- ----9---------9-9---------0-
-------------7-7-9------------ ------9---------------------
------------------------------ ----------------------------

----------3----------3----- ---------------------2--2-----
-------0-----------------0- ------------------------------ end
-------------0---0-0------- ---2--2------2---2----------0- Fig. A
-2-0-2---------2----------- -0-------4-4---0---4------4---
--------------------------- ------------------------------
--------------------------- ------------------------------


repeat Figure 4 with

----------- --------- ----------- ------------
----------- ------0-- ----------- --5---5-----
------4---- ----2---- --xx-9--9-- --7---7-----
---2-----2- --------- --xx-9--9-- --7---7-----
----------- -2------- ----------- ------------
----------- --------- ----------- ------------

play Figure A - 4 times with

these 4 bars - 4 times
--------- --------- -------- --------
-(8)(8)-- (10)(10)- --7----- --5--5--
--5--5--- --7---7-- --7--9-- --7--7--
--5--5--- --7---7-- -----9-- --7--7--
--------- --------- -------- --------
--------- --------- -------- --------

Figure B
--12--12--12--10--10--10--10- -7--7--7--7--8--8--7--7-
--13--13--13---8---8---8---8- -8--8--8--8--8--8--8--8-
----------------------------- ------------------------
----------------------------- ------------------------
----------------------------- ------------------------
----------------------------- ------------------------
w/
----------------------------- ------------------------
----1------------------------ ---3--------------------
---0------------------------- --2---------------------
-2--------------------------- 4-----------------------
----------------------------- ------------------------
----------------------------- ------------------------

(Fig. B)
-------5--5--5--5--5--5- --------5--5--5--5--5------
-------8--8--8--8--8--8- -----7--5--5--5--7--5--(0)- end Fig. B
----9------------------- -----7---------------------
--9--------------------- --7------------------------
-7---------------------- ---------------------------
------------------------ ---------------------------
w/
------------------------ ---------------------------
----0------------------- ----3----------------------
---0-------------------- ---2-----------------------
-2---------------------- -4-------------------------
------------------------ ---------------------------
------------------------ ---------------------------


play Figure B - 3 times with

------------ -------- ------0--- ----- ------- ---------------
------1----- ----3--- -----3---- -3--- ------- ---------------
----0---0--- ---0---- ---0------ -2--- -----0- ------2------2-
-2-------2-- -4------ -2-------- -4--- ---2--- ----4------4---
------------ -------- ---------- ----- ------- -2------2------
------------ -------- ---------- ----- ------- ---------------

------------- ------------0- ---------------- ---------------
------3----3- -------------- ---------------- ---------------
---4-----4--- ----2-----2--- ------0-------0- ------2------2-
-2----------- -0-----0------ ----2-------2--- ----4------4---
------------- -------------- -0-------0------ -2------2------
------------- -------------- ---------------- ---------------

----------------- -----------------
-------3-------3- -------3-------3-
----4-------4---- ----2-------2----
-2-------2------- -0-------0-------
----------------- -----------------
----------------- -----------------


-10----10-- -7-----8--7-- -5-----5--5-5- -5---5--5-5- -10---10----
--8-----8-- -8-----8--8-- -8-----8--8-8- -7---7--7-7- --8----8----
--7-----7-- -7-----7--7-- -7-----7--7-7- -7---7--7-7- --7----7----
----------- ------------- -------------- ------------ ------------
----------- ------------- -------------- ------------ ------------
----------- ------------- -------------- ------------ ------------
w/
----------- ------------- -------------- ------------ ------------
----------- ------------- ------0------- ----3------- ------------
------0---- ------2------ ----0--------- ---2-------- ------0-----
----2------ ----4-------- -2------------ -0---------- ----2-------
-0--------- -2----------- -------------- ------------ -0----------
----------- ------------- -------------- ------------ ------------


-7----8---7----- -5---5---5-- -5---5---5-- 10--10-10----
-8----8---8-8--- -8---8---8-- -7---7---7-- -8---8---8---
-7----7---7---0- -7---7---7-- -7---7---7-- -7---7----7--
---------------- ------------ ------------ -----------0-
---------------- ------------ ------------ -------------
---------------- ------------ ------------ -------------
w/
---------------- ------------ ------------ -------------
---------------- ------------ -----5------ ------1------
---------------- ------------ -----7------ ----4--------
---------------- ------------ -----7------ --2----------
---------------- ------------ ------------ -------------
---------------- ------------ ------------ -------------


-7---7--8---7------ -5--5--5--5-5-- -5--5-5----
-8---8---------8--- -8--8--8--8-8-- -7--7-7----
-7---7------------- -7--7--7--7-7-- -7--7-7----
------------------- --------------- -----------
------------------- --------------- -----------
------------------- --------------- -----------
w/
------------------- --------------- -5---------
------------------- --------------- -5---------
------------------- --------------- -7---------
------------------- --------------- -7---------
------------------- --------------- -5---------
------------------- --------------- -----------

Violin enters
                                     (harm)
-10--- --7--- --5--- --5---8---5-- ---------- -7--8-- --5----
--8--- --8--- --8--- --7---------- ---------- -8----- --8----
--7--- --7--- --7--- --7---------- ---7--12-- -7----- --7----
------ ------ ------ ------------- ---------- ------- -------
------ ------ ------ ------------- ---------- ------- -------
------ ------ ------ ------------- ---------- ------- -------


segue to "Say Goodbye"



The End



Scott Taylor
School of Music
The Florida State University
http://www.geocities.com/sequenzax
AOL IM: tromba1B
"Eat, drink, and be merry, for tomorrow we shall die." - Epicurus
Comments