Dave Herrick - X-rated Chords & Tabs

 

X-rated Chords & Tabs

Dave Herrick Chords & Tabs

Version: 1 Type: Tab 0 ratings
1 star 2 stars 3 stars 4 stars 5 stars
comments

X-rated Tab

   
Dave Herrick - X-Rated

Am                 Dmaj7               
e----------------------------------|
b-------1-0---1-----------5--------|
g-----2---------2-------7---7------|
d---2-------2---------6-------6----|
a-0-----------------7-----------7--|
e----------------------------------|


  G#7            Em
e-----------------------------|
b-------3----------------0----|
g-----5-----5----------0------|
d---5-----5----------2-----2--|
a------------------2----------|
e-3-----------2--0------------|


 Am                 some chord               
e----------------------------------|
b-------1-0---1-----------5--------|
g-----2---------2-------7---7------|
d---2-------2---------6-------6----|
a-0-----------------7-----------7--|
e----------------------------------|


  G
e-----------------------------------|
b-----------------------------------|
g-----------------------------------|
d-5-5-5-5-5-5-5-5-5-5-5-5-5-5-5-5-5-|
a-5-5-5-5-5-5-5-5-5-5-5-5-5-5-5-5-5-|
e-3-3-3-3-3-3-3-3-3-3-3-3-3-3-3-3-3-|
                 /palm muted.......\


Verse: 
[ Tab from: http://www.guitartabs.cc/tabs/d/dave_herrick/x_rated_tab.html ]
  a               d                G               
e------------------------------------------------|
b------------------------------------------------|
g-----------------7-7-7-7-7-7-7-7----------------|
d-7-7-7-7-7-7-7-7-7-7-7-7-7-7-7-7--5-5-5-5-5-5-5-|
a-7-7-7-7-7-7-7-7-5-5-5-5-5-5-5-5--5-5-5-5-5-5-5-|
e-5-5-5-5-5-5-5-5------------------3-3-3-3-3-3-3-|

    e
e--------------------|
b--------------------|
g--------------------|
d---2-2-2-2-2-2-2-2--|
a---2-2-2-2-2-2-2-2--|
e-2-0-0-0-0-0-0-0-0--|

  a               d                G
e----------------------------------3-|
b----------------------------------0-|
g-----------------7-7-7-7-7-7-7-7--0-|
d-7-7-7-7-7-7-7-7-7-7-7-7-7-7-7-7--0-|
a-7-7-7-7-7-7-7-7-5-5-5-5-5-5-5-5--2-|
e-5-5-5-5-5-5-5-5------------------3-|


Chorus: 

  C             C# d
e-----------------------------------|
b-----------------------------------|
g-5-5-5-5-5-5-5-6-7-7-7-7-7-7-7-7---|
d-5-5-5-5-5-5-5-6-7-7-7-7-7-7-7-7---|
a-3-3-3-3-3-3-3-4-5-5-5-5-5-5-5-5---|
e-----------------------------------|

  Bm                Em
e-2-2-2-2-2-2-2-2---------0----------0-|
b-3-3-3-3-3-3-3-3--------0----------0--|
g-4-4-4-4-4-4-4-4-------0----------0---|
d-4-4-4-4-4-4-4-4--2---2------2---2----|
a-2-2-2-2-2-2-2-2--2--2-------2--2-----|
e------------------0-0------0-0-0------|

  a               d
e-----------------2-2-2-2-2-2-2-2--|
b-----------------3-3-3-3-3-3-3-3--|
g-2-2-2-2-2-2-2-2-2-2-2-2-2-2-2-2--|
d-2-2-2-2-2-2-2-2-0-0-0-0-0-0-0-0--|
a-0-0-0-0-0-0-0-0------------------|
e----------------------------------|

  G    C    G
e-------------------------|
b-------------------------|
g------5-5----------------|
d-5-5--5-5--5-5-5-5-5-5-5-|
a-5-5--3-3--5-5-5-5-5-5-5-|
e-3-3-------3-3-3-3-3-3-3-|
Comments