Dave Herrick - The Beast House Chords & Tabs

 

The Beast House Chords & Tabs

Dave Herrick Chords & Tabs

Version: 1 Type: Tab 0 ratings
1 star 2 stars 3 stars 4 stars 5 stars
comments

The Beast House Tab

The Beast House
Dave herrick
bleed

This is the best version I could do

Guitar 1
Intro-play once then guitar 2 enters while guitar one keeps playing
E---------------------------------------------------
A---------------------------------------------------
D---------------------------------------------------
G-0---0-0---0--0---0-0---3-3---0--0--7-7--5-5--3-0-0
B-0-2-0-0---0--0---0-0---3-3---0--0--7-7--5-5--3-0-0
D-0-3-0-0---0--0---0-0---3-3---0--0--7-7--5-5--3-0-0
[ Tab from: http://www.guitartabs.cc/tabs/d/dave_herrick/the_beast_house_tab.html ]
Guitar 2
(tap using a pic)        
E-17p15p13--17p15p13--17p15p13--14p12p10--14p12p10--17-15-13--15-17-18-20
A------------------------------------------------------------------------
D------------------------------------------------------------------------
G------------------------------------------------------------------------
B------------------------------------------------------------------------
D------------------------------------------------------------------------

play with your picking hand co-ordinating with the bass drum. you pause when he 
says bleed. and mother fucker
                        (bleed)|  |                      (motherfucker)
E------------------------------|  |---------------------------------------  
A------------------------------|  |---------------------------------------
D------------------------------|x2|---------------------------------------
G-0-0-0--0--0---0--0-0---------|  |-0-3-3--3--3---3-0-0-------------------
B-0-0-0--0--0---0--0-0---------|  |-0-3-3--3--3---3-0-0-------------------
D-0-0-0--0--0---0--0-0---------|  |-0-3-3--3--3---3-0-0-------------------

====
Comments