Dave Herrick - The Beast House Chords & Tabs

 

The Beast House Chords & Tabs

Dave Herrick Chords & Tabs

Version: 1 Type: Bass Tab 0 ratings
1 star 2 stars 3 stars 4 stars 5 stars
comments

The Beast House Bass Tab

Dave Herrick - The Beast House

E---------------------------------------------------------------------
A---------------------------------------------------------------------
D---------------------------------------------------------------------
G-777-7-7-7--77-7--7--7-----33--33-33--33-3----3--33--33-3--------3--3

E---------------------------------------------------------------------
A---------------------------------------------------------------------
D---------------------------------------------------------------------
G-77-77-77--77--77--7-7-7-7-7---7-7---0--0--0--0----0-0--0---0-0---0-
[ Tab from: http://www.guitartabs.cc/tabs/d/dave_herrick/the_beast_house_btab.html ]
E---------------------------------------------------------------------
A---------------------------------------------------------------------
D---------------------------------------------------------------------
G-3--3--3--3--3--3-------3--3---3---3-----0--0-------0--0-----0-0----

E---------------------------------------------------------------------
A---------------------------------------------------------------------
D---------------------------------------------------------------------
G-77-----77-------77--7--7--7---------33------33-------33-3--3----3--3

E---------------------------------------------------------------------
A---------------------------------------------------------------------
D--------------------77--77-------------------77--77------------------
G-3-3-3-3-3-3-3-3-3-3-------3-3-3-3-3-3-3-3-3--------0-0-0-0-0-0-0-0-0

E---------------------------------------------------------------------
A---------------------------------------------------------------------
D-55--55------------------55--55--77--77--55--55--33--33--77--77--00--
D-------0-0-0-0-0-0-0-0-0---------------------------------------------
Comments