Dave Herrick - Roadrunner Chords & Tabs

 

Roadrunner Chords & Tabs

Dave Herrick Chords & Tabs

Version: 1 Type: Tab 0 ratings
1 star 2 stars 3 stars 4 stars 5 stars
comments

Roadrunner Tab

Song-Roadrunner
Band-Dave Herrick

INTRO: (Palm muted)(0:00)
E--------------
A--------------
D--------------
G------1------3
B--------------
D-0-0-1--0-0-1-

guitar 2 (0:32)

E----------------------------------------------------------------
A----------------------------------------------------------------
D----------------------------------------------------------------
G---------3p6-fb3------------3p5p6-------------------------------
B------3p6-------------6/5h3-------3p5p6p8p6hb5----------2p3p7p11
D-0p3p6-----------0p3p6-------------------------0p3p11p0---------

guitar 1 (do 4x then guitar 2 enters)(0:37)

E--------------
A--------------
D--------------
G-0-4-0---0-1-0
B-0-4-0---0-1-0
D-0-4-0---0-1-0

guitar 2: (0:43)
(fucking little bastard...)
E-----------------------------------------------------------------------------
A-----------------------------------------------------------------------------
D-----------------------------------------------------------------------------
G-3-3--3-3-3---3-3--3-3-3---3-3--3--3--1-3--4--6--7--9--10--10--1-1-1-1-1--0-0
B-3-3--3-3-3---3-3--3-3-3---3-3--3--3--1-3--4--6--7--9--10--10--1-1-1-1-1--0-0
D-3-3--3-3-3---3-3--3-3-3---3-3--3--3--1-3--4--6--7--9--10--10--1-1-1-1-1--0-0

after this, go back and do the intro for the verses.
[ Tab from: http://www.guitartabs.cc/tabs/d/dave_herrick/roadrunner_tab.html ]
chours:(1:21)(2:25)
(The roadrunner....)
E------------------------------------------------------------------
A------------------------------------------------------------------
D------------------------------------------------------------------
G---------------------h7--h5--------------------h5-h7-h5-0--0--0--0
B-0--0--0--0-0-0-0-0-0------3--3--3--3-3-3-3-3-3---------0--0--0--0
D-0--0--0--0-0-0-0-0-0------3--3--3--3-3-3-3-3-3---------0--0--0--0

solo: (3:01) 
tap using a pic, i think

E-14p13p16p17p11p13p5-fb7-------------------23p20p19-19p17p16-16p15p13p13p12p9----
A-------------------------15p17p19p21p22p20------------------------------------fb7
D--3------------5-----------------5-----------------------5-----------------------
G---------------------------------------------------------------------------------
B-------3---------------3------------------3--------------------------------------
D---------------------------------------------------------------------------------

outro: (5:17)
(I got ranover by a roadrunner....)
E-----------------------------------------------------------------------------
A-----------------------------------------------------------------------------
D-----------------------------------------------------------------------------
G-------------------------------------------------------------------0---0--0-1
B-------------------------------------------------------------------0---0--0-1
D-2p5p2p5p4p2p5p4p5p4p2p4p5p2p4p5p2p4p5p4p5p7p4p5p7p4p5p7p5p4p2p4p2p0---0--0-1
Comments