Dave Herrick - Record Chords & Tabs

 

Record Chords & Tabs

Dave Herrick Chords & Tabs

Version: 1 Type: Tab 0 ratings
1 star 2 stars 3 stars 4 stars 5 stars
comments

Record Tab

   
Dave Herrick - Record
Glen (krafftdinner@hotmail.com)

Dave Herrick $ Dave Lordson
Record
Red Zebra


    G    Cadd9    D 
E |-3------3------2------|
B |-3------3------3------|
G |-0------0------2------|
D |-0------2------0------|
A |-2------3-------------|
E |-3--------------------|Intro 
=====

(To get the rythm right, listen to the recording. But if you want to play
along, remember to tune down your guitar 1/2 a step...)
 
G Cadd9 G D (play this a couple of times)


Chorus
======
[ Tab from: http://www.guitartabs.cc/tabs/d/dave_herrick/record_tab.html ]
    G     Cadd9 G  D        G    Cadd9 G  D


    G     Cadd9 G D         G      Cadd9   G   DVerse
=====


E |3----------------3--------------2----------------------------|
B |3----------------3--------------3----------------------------|
G |0----------------0--------------2-------------0------0-------|
D |0----------------2--------------0-----------0------0-------0-|
A |2----------------3--------------------0-2-3------2-----0h2---|
E |3------------------------------------------------------------
Comments