Dave Herrick - My Basement Room Chords & Tabs

 

My Basement Room Chords & Tabs

Dave Herrick Chords & Tabs

Version: 1 Type: Bass Tab 0 ratings
1 star 2 stars 3 stars 4 stars 5 stars
comments

My Basement Room Bass Tab

Dave Herrick
My Basement Room

Bass and guitars are tuened half a step down.  

G--------------------------
D--------------------------
A-0--0---------------------
E------3--3--2-3-2-0-3-2-0-
[ Tab from: http://www.guitartabs.cc/tabs/d/dave_herrick/my_basement_room_btab.html ]
G----------------------------------------------------------
D----------------------------------------------------------
A---------------------------2--0--2--3--0--3--5------------
E-0--3--2--3--5--3--2--0--3----------------------5--3--2--0

G--------
D--------
A------2-
E-0------
Comments