Dave Herrick - Little Rabbits Chords & Tabs

 

Little Rabbits Chords & Tabs

Dave Herrick Chords & Tabs

Version: 1 Type: Bass Tab 0 ratings
1 star 2 stars 3 stars 4 stars 5 stars
comments

Little Rabbits Bass Tab

   
DAve Herrick - Little rabbits
Gregg (Gregg@yahoo.con)
[ Tab from: http://www.guitartabs.cc/tabs/d/dave_herrick/little_rabbits_btab.html ]
E-----------------------------------------
A-----------------------------------------
D-2-3-1-2-3-1-2-3-1-2-3-1-2-1-2-1-3-1-3---
G-----------------------------------------
(TWO BASSES)
E--9-9-9-9-9-9-9-9-9-9-9-9-9-9-9-9-9-9-9-9-9-9-9-9-9-9-9
A-8-8-8-8-8-8-8-8-8-8-8-8-8-8-8-8-8-8-8-8-8-8-8-8-8-8-8-
D--9-9-9-9-9-9-9-9-9-9-9-9-9-9-9-9-9-9-9-9-9-9-9-9-9-9-9
G-8-8-8-8-8-8-8-8-8-8-8-8-8-8-8-8-8-8-8-8-8-8-8-8-8-8-8-

E-------------------14--14--14--14-
A----4--------6--------------------
D-----------------11--11--11--11---
G-0p2-----0p4----------------------

that's it.  just because it's tabbed out, does not mean you can still play it
but give it a try
Comments